  0
SECTION
  2
HEADER
  9
$ACADVER
  1
AC1009
  9
$INSBASE
 10
0.0
 20
0.0
 30
0.0
  9
$EXTMIN
 10
12.0
 20
11.0
 30
0.0
  9
$EXTMAX
 10
1992.0
 20
1391.4926800000001
 30
0.0
  9
$LIMMIN
 10
0.0
 20
0.0
  9
$LIMMAX
 10
12.0
 20
9.0
  9
$ORTHOMODE
 70
     0
  9
$REGENMODE
 70
     1
  9
$FILLMODE
 70
     1
  9
$QTEXTMODE
 70
     0
  9
$MIRRTEXT
 70
     1
  9
$DRAGMODE
 70
     2
  9
$LTSCALE
 40
5.1440159999999997
  9
$OSMODE
 70
  2999
  9
$ATTMODE
 70
     1
  9
$TEXTSIZE
 40
0.2
  9
$TRACEWID
 40
1.0
  9
$TEXTSTYLE
  7
STANDARD
  9
$CLAYER
  8
0
  9
$CELTYPE
  6
BYLAYER
  9
$CECOLOR
 62
   256
  9
$DIMSCALE
 40
1.0
  9
$DIMASZ
 40
2.5
  9
$DIMEXO
 40
0.625
  9
$DIMDLI
 40
3.75
  9
$DIMRND
 40
0.0
  9
$DIMDLE
 40
0.0
  9
$DIMEXE
 40
1.25
  9
$DIMTP
 40
0.0
  9
$DIMTM
 40
0.0
  9
$DIMTXT
 40
2.5
  9
$DIMCEN
 40
0.09
  9
$DIMTSZ
 40
0.0
  9
$DIMTOL
 70
     0
  9
$DIMLIM
 70
     0
  9
$DIMTIH
 70
     0
  9
$DIMTOH
 70
     0
  9
$DIMSE1
 70
     0
  9
$DIMSE2
 70
     0
  9
$DIMTAD
 70
     0
  9
$DIMZIN
 70
     8
  9
$DIMBLK
  1

  9
$DIMASO
 70
     1
  9
$DIMSHO
 70
     0
  9
$DIMPOST
  1

  9
$DIMAPOST
  1

  9
$DIMALT
 70
     0
  9
$DIMALTD
 70
     3
  9
$DIMALTF
 40
0.03937
  9
$DIMLFAC
 40
1.0
  9
$DIMTOFL
 70
     1
  9
$DIMTVP
 40
0.0
  9
$DIMTIX
 70
     0
  9
$DIMSOXD
 70
     0
  9
$DIMSAH
 70
     0
  9
$DIMBLK1
  1

  9
$DIMBLK2
  1

  9
$DIMSTYLE
  2
ISO-25
  9
$DIMCLRD
 70
     0
  9
$DIMCLRE
 70
     0
  9
$DIMCLRT
 70
     0
  9
$DIMTFAC
 40
1.0
  9
$DIMGAP
 40
0.625
  9
$LUNITS
 70
     2
  9
$LUPREC
 70
     4
  9
$SKETCHINC
 40
1.0
  9
$FILLETRAD
 40
0.0
  9
$AUNITS
 70
     0
  9
$AUPREC
 70
     0
  9
$MENU
  1
.
  9
$ELEVATION
 40
0.0
  9
$PELEVATION
 40
0.0
  9
$THICKNESS
 40
0.0
  9
$LIMCHECK
 70
     0
  9
$BLIPMODE
 70
     0
  9
$CHAMFERA
 40
10.0
  9
$CHAMFERB
 40
10.0
  9
$SKPOLY
 70
     0
  9
$TDCREATE
 40
2456275.6228493871
  9
$TDUPDATE
 40
2456275.625115741
  9
$TDINDWG
 40
0.0020464468
  9
$TDUSRTIMER
 40
0.0020459144
  9
$USRTIMER
 70
     1
  9
$ANGBASE
 50
0.0
  9
$ANGDIR
 70
     0
  9
$PDMODE
 70
     0
  9
$PDSIZE
 40
0.0
  9
$PLINEWID
 40
0.0
  9
$COORDS
 70
     2
  9
$SPLFRAME
 70
     0
  9
$SPLINETYPE
 70
     6
  9
$SPLINESEGS
 70
     8
  9
$ATTDIA
 70
     0
  9
$ATTREQ
 70
     1
  9
$HANDLING
 70
     1
  9
$HANDSEED
  5
15C9
  9
$SURFTAB1
 70
     6
  9
$SURFTAB2
 70
     6
  9
$SURFTYPE
 70
     6
  9
$SURFU
 70
     6
  9
$SURFV
 70
     6
  9
$UCSNAME
  2

  9
$UCSORG
 10
0.0
 20
0.0
 30
0.0
  9
$UCSXDIR
 10
1.0
 20
0.0
 30
0.0
  9
$UCSYDIR
 10
0.0
 20
1.0
 30
0.0
  9
$PUCSNAME
  2

  9
$PUCSORG
 10
0.0
 20
0.0
 30
0.0
  9
$PUCSXDIR
 10
1.0
 20
0.0
 30
0.0
  9
$PUCSYDIR
 10
0.0
 20
1.0
 30
0.0
  9
$USERI1
 70
     0
  9
$USERI2
 70
     0
  9
$USERI3
 70
     0
  9
$USERI4
 70
     0
  9
$USERI5
 70
     0
  9
$USERR1
 40
0.0
  9
$USERR2
 40
0.0
  9
$USERR3
 40
0.0
  9
$USERR4
 40
0.0
  9
$USERR5
 40
0.0
  9
$WORLDVIEW
 70
     1
  9
$SHADEDGE
 70
     3
  9
$SHADEDIF
 70
    70
  9
$TILEMODE
 70
     1
  9
$MAXACTVP
 70
    64
  9
$PLIMCHECK
 70
     0
  9
$PEXTMIN
 10
1.0000000000000000E+020
 20
1.0000000000000000E+020
 30
0.0
  9
$PEXTMAX
 10
-1.0000000000000000E+020
 20
-1.0000000000000000E+020
 30
0.0
  9
$PLIMMIN
 10
0.0
 20
0.0
  9
$PLIMMAX
 10
12.0
 20
9.0
  9
$UNITMODE
 70
     0
  9
$VISRETAIN
 70
     1
  9
$PLINEGEN
 70
     0
  9
$PSLTSCALE
 70
     1
  0
ENDSEC
  0
SECTION
  2
TABLES
  0
TABLE
  2
VPORT
 70
     2
  0
VPORT
  2
*ACTIVE
 70
     0
 10
0.0
 20
0.0
 11
1.0
 21
1.0
 12
995.62406329224905
 22
834.57543778154366
 13
0.0
 23
0.0
 14
1.0
 24
1.0
 15
0.0
 25
0.0
 16
0.0
 26
0.0
 36
1.0
 17
0.0
 27
0.0
 37
0.0
 40
1430.8946264254459
 41
1.572199730094467
 42
50.0
 43
0.0
 44
0.0
 50
0.0
 51
0.0
 71
     0
 72
   100
 73
     1
 74
     3
 75
     0
 76
     0
 77
     0
 78
     0
  0
ENDTAB
  0
TABLE
  2
LTYPE
 70
     5
  0
LTYPE
  2
CONTINUOUS
 70
     0
  3
Solid line
 72
    65
 73
     0
 40
0.0
  0
LTYPE
  2
DASHED
 70
     0
  3
DASHED
 72
    83
 73
     2
 40
0.75
 49
0.5
 49
-0.25
  0
LTYPE
  2
HIDDEN
 70
     0
  3
HIDDEN
 72
    83
 73
     2
 40
0.375
 49
0.25
 49
-0.125
  0
LTYPE
  2
CENTER
 70
     0
  3
CENTER
 72
    83
 73
     4
 40
2.0
 49
1.25
 49
-0.25
 49
0.25
 49
-0.25
  0
LTYPE
  2
PHANTOM
 70
     0
  3
PHANTOM
 72
    83
 73
     6
 40
2.5
 49
1.25
 49
-0.25
 49
0.25
 49
-0.25
 49
0.25
 49
-0.25
  0
ENDTAB
  0
TABLE
  2
LAYER
 70
     3
  0
LAYER
  2
0
 70
     0
 62
     7
  6
CONTINUOUS
  0
LAYER
  2
001
 70
     0
 62
     7
  6
CONTINUOUS
  0
LAYER
  2
DEFPOINTS
 70
     0
 62
     7
  6
CONTINUOUS
  0
ENDTAB
  0
TABLE
  2
STYLE
 70
     2
  0
STYLE
  2
STANDARD
 70
     0
 40
0.0
 41
1.0
 50
0.0
 71
     0
 42
0.2
  3
TXT
  4
BIGFONT
  0
STYLE
  2
TATEGAKI
 70
     4
 40
1.0
 41
1.0
 50
0.0
 71
     0
 42
0.2
  3
TXT
  4
BIGFONT
  0
ENDTAB
  0
TABLE
  2
VIEW
 70
     0
  0
ENDTAB
  0
TABLE
  2
UCS
 70
     0
  0
ENDTAB
  0
TABLE
  2
APPID
 70
     1
  0
APPID
  2
ACAD
 70
     0
  0
ENDTAB
  0
TABLE
  2
DIMSTYLE
 70
     2
  0
DIMSTYLE
  2
ISO-25
 70
     0
  3

  4

  5

  6

  7

 40
1.0
 41
2.5
 42
0.625
 43
3.75
 44
1.25
 45
0.0
 46
0.0
 47
0.0
 48
0.0
140
2.5
141
2.5
142
0.0
143
0.03937
144
1.0
145
0.0
146
1.0
147
0.625
 71
     0
 72
     0
 73
     0
 74
     0
 75
     0
 76
     0
 77
     1
 78
     8
170
     0
171
     3
172
     1
173
     0
174
     0
175
     0
176
     0
177
     0
178
     0
  0
DIMSTYLE
  2
STANDARD
 70
     0
  3

  4

  5

  6

  7

 40
1.0
 41
1.5
 42
0.0
 43
0.38
 44
2.75
 45
0.0
 46
0.0
 47
0.0
 48
0.0
140
4.0
141
0.09
142
0.0
143
25.399999999999999
144
1.0
145
0.0
146
0.8
147
1.0
 71
     0
 72
     0
 73
     0
 74
     0
 75
     0
 76
     0
 77
     1
 78
     8
170
     0
171
     2
172
     1
173
     0
174
     0
175
     0
176
     0
177
     0
178
     0
  0
ENDTAB
  0
ENDSEC
  0
SECTION
  2
BLOCKS
  0
BLOCK
  8
0
  2
$MODEL_SPACE
 70
     0
 10
0.0
 20
0.0
 30
0.0
  3
$MODEL_SPACE
  1

  0
ENDBLK
  5
21
  8
0
  0
BLOCK
 67
     1
  8
0
  2
$PAPER_SPACE
 70
     0
 10
0.0
 20
0.0
 30
0.0
  3
$PAPER_SPACE
  1

  0
ENDBLK
  5
1D
 67
     1
  8
0
  0
BLOCK
  8
0
  2
JZB-1
 70
     0
 10
0.0
 20
0.0
 30
0.0
  3
JZB-1
  1

  0
ARC
  5
67
  8
001
 62
     5
 10
157.012271
 20
254.731413
 30
0.0
 40
0.6199999999999982
 50
102.790356
 51
257.20964400000003
  0
LINE
  5
68
  8
001
 62
     5
 10
156.668271
 20
254.731413
 30
0.0
 11
156.840271
 21
254.43350000000001
 31
0.0
  0
LINE
  5
69
  8
001
 62
     5
 10
156.840271
 20
255.029325
 30
0.0
 11
156.668271
 21
254.731413
 31
0.0
  0
LINE
  5
6A
  8
001
 62
     5
 10
156.875013
 20
255.029325
 30
0.0
 11
156.840271
 21
255.029325
 31
0.0
  0
LINE
  5
6B
  8
001
 62
     5
 10
156.840271
 20
254.43350000000001
 30
0.0
 11
156.875013
 21
254.43350000000001
 31
0.0
  0
ARC
  5
6C
  8
001
 62
     5
 10
157.012271
 20
254.731413
 30
0.0
 40
0.6999999999999998
 50
101.308013
 51
258.69198699999998
  0
ENDBLK
  5
66
  8
0
  0
BLOCK
  8
0
  2
JZB-2
 70
     0
 10
0.0
 20
0.0
 30
0.0
  3
JZB-2
  1

  0
ARC
  5
70
  8
001
 62
     5
 10
176.73775499999999
 20
254.731413
 30
0.0
 40
0.6199999999999982
 50
282.79035599999997
 51
77.209643999999983
  0
LINE
  5
71
  8
001
 62
     5
 10
176.875013
 20
254.46665899999999
 30
0.0
 11
177.03566699999999
 21
254.55941300000001
 31
0.0
  0
LINE
  5
72
  8
001
 62
     5
 10
177.03566699999999
 20
254.55941300000001
 30
0.0
 11
177.03566699999999
 21
254.903413
 31
0.0
  0
LINE
  5
73
  8
001
 62
     5
 10
177.03566699999999
 20
254.903413
 30
0.0
 11
176.875013
 21
254.99616700000001
 31
0.0
  0
ARC
  5
74
  8
001
 62
     5
 10
176.73775499999999
 20
254.731413
 30
0.0
 40
0.6999999999999998
 50
281.30801300000002
 51
78.691986999999997
  0
ENDBLK
  5
6F
  8
0
  0
BLOCK
  8
0
  2
JZB-3
 70
     0
 10
0.0
 20
0.0
 30
0.0
  3
JZB-3
  1

  0
ARC
  5
78
  8
001
 62
     5
 10
157.012271
 20
250.205929
 30
0.0
 40
0.6199999999999982
 50
102.790356
 51
257.20964400000003
  0
LINE
  5
79
  8
001
 62
     5
 10
156.714358
 20
250.37792899999999
 30
0.0
 11
156.714358
 21
250.033929
 31
0.0
  0
LINE
  5
7A
  8
001
 62
     5
 10
156.714358
 20
250.033929
 30
0.0
 11
156.875013
 21
249.94117499999999
 31
0.0
  0
LINE
  5
7B
  8
001
 62
     5
 10
156.875013
 20
250.47068300000001
 30
0.0
 11
156.714358
 21
250.37792899999999
 31
0.0
  0
ARC
  5
7C
  8
001
 62
     5
 10
157.012271
 20
250.205929
 30
0.0
 40
0.6999999999999998
 50
101.308013
 51
258.69198699999998
  0
ENDBLK
  5
77
  8
0
  0
BLOCK
  8
0
  2
JZB-4
 70
     0
 10
0.0
 20
0.0
 30
0.0
  3
JZB-4
  1

  0
ARC
  5
80
  8
001
 62
     5
 10
176.73775499999999
 20
250.205929
 30
0.0
 40
0.6199999999999982
 50
282.79035599999997
 51
77.209643999999983
  0
LINE
  5
81
  8
001
 62
     5
 10
177.08175499999999
 20
250.205929
 30
0.0
 11
176.90975499999999
 21
250.50384199999999
 31
0.0
  0
LINE
  5
82
  8
001
 62
     5
 10
176.90975499999999
 20
250.50384199999999
 30
0.0
 11
176.875013
 21
250.50384199999999
 31
0.0
  0
LINE
  5
83
  8
001
 62
     5
 10
176.90975499999999
 20
249.908017
 30
0.0
 11
177.08175499999999
 21
250.205929
 31
0.0
  0
LINE
  5
84
  8
001
 62
     5
 10
176.875013
 20
249.908017
 30
0.0
 11
176.90975499999999
 21
249.908017
 31
0.0
  0
ARC
  5
85
  8
001
 62
     5
 10
176.73775499999999
 20
250.205929
 30
0.0
 40
0.6999999999999998
 50
281.30801300000002
 51
78.691986999999997
  0
ENDBLK
  5
7F
  8
0
  0
BLOCK
  8
0
  2
JZB-5
 70
     0
 10
0.0
 20
0.0
 30
0.0
  3
JZB-5
  1

  0
CIRCLE
  5
89
  8
001
 62
     5
 10
148.537755
 20
228.43141299999999
 30
0.0
 40
0.4000000000000005
  0
ENDBLK
  5
88
  8
0
  0
BLOCK
  8
0
  2
JZB-6
 70
     0
 10
0.0
 20
0.0
 30
0.0
  3
JZB-6
  1

  0
CIRCLE
  5
8D
  8
001
 62
     5
 10
148.537755
 20
261.90592900000001
 30
0.0
 40
0.3999999999999976
  0
ENDBLK
  5
8C
  8
0
  0
BLOCK
  8
0
  2
V-7
 70
     0
 10
0.0
 20
0.0
 30
0.0
  3
V-7
  1

  0
ARC
  5
91
  8
001
 62
   140
 10
157.012271
 20
250.205929
 30
0.0
 40
0.75
 50
100.54519500000001
 51
259.45480500000002
  0
ARC
  5
92
  8
001
 62
   140
 10
157.012271
 20
254.731413
 30
0.0
 40
0.75
 50
100.54519500000001
 51
259.45480500000002
  0
ARC
  5
93
  8
001
 62
   140
 10
159.275013
 20
252.468671
 30
0.0
 40
4.1999999999999984
 50
124.84990500000001
 51
229.66855200000001
  0
ENDBLK
  5
90
  8
0
  0
BLOCK
  8
0
  2
V-8
 70
     0
 10
0.0
 20
0.0
 30
0.0
  3
V-8
  1

  0
ARC
  5
97
  8
001
 62
   140
 10
174.47501299999999
 20
252.468671
 30
0.0
 40
4.1999999999999984
 50
310.33144800000002
 51
55.150094999999993
  0
ARC
  5
98
  8
001
 62
   140
 10
176.73775499999999
 20
250.205929
 30
0.0
 40
0.75
 50
280.54519500000009
 51
79.454805000000007
  0
ARC
  5
99
  8
001
 62
   140
 10
176.73775499999999
 20
254.731413
 30
0.0
 40
0.75
 50
280.54519500000009
 51
79.454805000000007
  0
ENDBLK
  5
96
  8
0
  0
BLOCK
  8
0
  2
JZB-9
 70
     0
 10
0.0
 20
0.0
 30
0.0
  3
JZB-9
  1

  0
LINE
  5
9D
  8
001
 10
144.875013
 20
256.91867100000002
 30
0.0
 11
145.275013
 21
256.91867100000002
 31
0.0
  0
LINE
  5
9E
  8
001
 10
144.875013
 20
257.71867099999997
 30
0.0
 11
145.275013
 21
257.71867099999997
 31
0.0
  0
LINE
  5
9F
  8
001
 10
144.875013
 20
247.76206400000001
 30
0.0
 11
144.875013
 21
257.71867099999997
 31
0.0
  0
LINE
  5
A0
  8
001
 10
144.875013
 20
257.46867099999997
 30
0.0
 11
144.70556300000001
 21
257.453846
 31
0.0
  0
LINE
  5
A1
  8
001
 10
144.70556300000001
 20
256.38349599999998
 30
0.0
 11
144.875013
 21
256.36867100000001
 31
0.0
  0
ARC
  5
A2
  8
001
 10
144.722994
 20
257.25460700000002
 30
0.0
 40
0.2000000000000001
 50
95.0
 51
163.74297200000001
  0
ARC
  5
A3
  8
001
 10
144.722994
 20
256.58273500000001
 30
0.0
 40
0.2000000000000001
 50
196.25702799999999
 51
265.0
  0
POLYLINE
  5
A4
  8
001
 66
     1
 10
0.0
 20
0.0
 30
0.0
  0
VERTEX
  5
A6
  8
001
 10
144.52400700000001
 20
257.2786779999999
 30
0.0
  0
VERTEX
  5
A7
  8
001
 10
144.523448
 20
257.27864599999998
 30
0.0
  0
VERTEX
  5
A8
  8
001
 10
144.52257
 20
257.27867500000002
 30
0.0
  0
VERTEX
  5
A9
  8
001
 10
144.522254
 20
257.27871199999998
 30
0.0
  0
VERTEX
  5
AA
  8
001
 10
144.52208999999999
 20
257.27867099999997
 30
0.0
  0
SEQEND
  5
A5
  8
001
  0
ARC
  5
AB
  8
001
 10
145.875013
 20
256.91867100000002
 30
0.0
 40
1.399999999999999
 50
194.900597
 51
196.25702799999999
  0
ARC
  5
AC
  8
001
 10
145.875013
 20
256.91867100000002
 30
0.0
 40
1.399999999999999
 50
163.74297200000001
 51
165.099403
  0
POLYLINE
  5
AD
  8
001
 66
     1
 10
0.0
 20
0.0
 30
0.0
  0
VERTEX
  5
AF
  8
001
 10
144.52400700000001
 20
256.55867799999999
 30
0.0
  0
VERTEX
  5
B0
  8
001
 10
144.52346499999999
 20
256.55864500000001
 30
0.0
  0
VERTEX
  5
B1
  8
001
 10
144.522569
 20
256.55867499999999
 30
0.0
  0
VERTEX
  5
B2
  8
001
 10
144.522233
 20
256.55871200000001
 30
0.0
  0
VERTEX
  5
B3
  8
001
 10
144.52208999999999
 20
256.558671
 30
0.0
  0
SEQEND
  5
AE
  8
001
  0
ARC
  5
B4
  8
001
 10
145.875013
 20
256.918678
 30
0.0
 40
1.398147345597021
 50
182.95185000000001
 51
194.92080000000001
  0
POLYLINE
  5
B5
  8
001
 66
     1
 10
0.0
 20
0.0
 30
0.0
  0
VERTEX
  5
B7
  8
001
 10
144.52400700000001
 20
256.84670799999998
 30
0.0
  0
VERTEX
  5
B8
  8
001
 10
144.513485
 20
256.84670399999999
 30
0.0
  0
VERTEX
  5
B9
  8
001
 10
144.49810600000001
 20
256.84669600000001
 30
0.0
  0
VERTEX
  5
BA
  8
001
 10
144.48659599999999
 20
256.84668799999997
 30
0.0
  0
VERTEX
  5
BB
  8
001
 10
144.47872100000001
 20
256.846678
 30
0.0
  0
SEQEND
  5
B6
  8
001
  0
ARC
  5
BC
  8
001
 10
145.875013
 20
256.91870799999998
 30
0.0
 40
1.3529227620230171
 50
176.94938500000001
 51
183.05061499999999
  0
POLYLINE
  5
BD
  8
001
 66
     1
 10
0.0
 20
0.0
 30
0.0
  0
VERTEX
  5
BF
  8
001
 10
144.52400700000001
 20
256.99070799999998
 30
0.0
  0
VERTEX
  5
C0
  8
001
 10
144.513485
 20
256.99070399999999
 30
0.0
  0
VERTEX
  5
C1
  8
001
 10
144.49810600000001
 20
256.99069600000001
 30
0.0
  0
VERTEX
  5
C2
  8
001
 10
144.48659599999999
 20
256.99068799999998
 30
0.0
  0
VERTEX
  5
C3
  8
001
 10
144.47872100000001
 20
256.990678
 30
0.0
  0
SEQEND
  5
BE
  8
001
  0
ARC
  5
C4
  8
001
 10
145.875013
 20
256.918678
 30
0.0
 40
1.398147345597021
 50
165.07919999999999
 51
177.04814999999999
  0
POLYLINE
  5
C5
  8
001
 66
     1
 10
0.0
 20
0.0
 30
0.0
  0
VERTEX
  5
C7
  8
001
 10
144.52208999999999
 20
257.27867099999997
 30
0.0
  0
VERTEX
  5
C8
  8
001
 10
144.522233
 20
257.27863000000002
 30
0.0
  0
VERTEX
  5
C9
  8
001
 10
144.522569
 20
257.27866699999998
 30
0.0
  0
VERTEX
  5
CA
  8
001
 10
144.52346499999999
 20
257.27869600000002
 30
0.0
  0
VERTEX
  5
CB
  8
001
 10
144.52400700000001
 20
257.27866299999999
 30
0.0
  0
SEQEND
  5
C6
  8
001
  0
POLYLINE
  5
CC
  8
001
 66
     1
 10
0.0
 20
0.0
 30
0.0
  0
VERTEX
  5
CE
  8
001
 10
144.47872100000001
 20
256.99066299999998
 30
0.0
  0
VERTEX
  5
CF
  8
001
 10
144.48659599999999
 20
256.99065400000001
 30
0.0
  0
VERTEX
  5
D0
  8
001
 10
144.49810600000001
 20
256.99064600000003
 30
0.0
  0
VERTEX
  5
D1
  8
001
 10
144.513485
 20
256.99063799999999
 30
0.0
  0
VERTEX
  5
D2
  8
001
 10
144.52400700000001
 20
256.990634
 30
0.0
  0
SEQEND
  5
CD
  8
001
  0
LINE
  5
D3
  8
001
 10
144.52400600000001
 20
256.990678
 30
0.0
 11
144.47872100000001
 21
256.990678
 31
0.0
  0
LINE
  5
D4
  8
001
 10
144.47501299999999
 20
249.51867100000001
 30
0.0
 11
144.47501299999999
 21
254.31867099999999
 31
0.0
  0
LINE
  5
D5
  8
001
 10
144.47501299999999
 20
254.31867099999999
 30
0.0
 11
144.875013
 21
254.31867099999999
 31
0.0
  0
LINE
  5
D6
  8
001
 10
144.47501299999999
 20
249.51867100000001
 30
0.0
 11
144.875013
 21
249.51867100000001
 31
0.0
  0
LINE
  5
D7
  8
001
 10
144.375651
 20
250.11867100000001
 30
0.0
 11
144.375651
 21
253.718671
 31
0.0
  0
LINE
  5
D8
  8
001
 10
144.34294600000001
 20
250.11867100000001
 30
0.0
 11
144.34294600000001
 21
253.718671
 31
0.0
  0
LINE
  5
D9
  8
001
 10
143.42719700000001
 20
253.718671
 30
0.0
 11
143.42719700000001
 21
250.11867100000001
 31
0.0
  0
LINE
  5
DA
  8
001
 10
143.39449200000001
 20
253.718671
 30
0.0
 11
143.39449200000001
 21
250.11867100000001
 31
0.0
  0
LINE
  5
DB
  8
001
 10
144.47501299999999
 20
253.718671
 30
0.0
 11
143.39449200000001
 21
253.718671
 31
0.0
  0
LINE
  5
DC
  8
001
 10
143.39449200000001
 20
250.11867100000001
 30
0.0
 11
144.47501299999999
 21
250.11867100000001
 31
0.0
  0
ENDBLK
  5
9C
  8
0
  0
BLOCK
  8
0
  2
JZB-10
 70
     0
 10
0.0
 20
0.0
 30
0.0
  3
JZB-10
  1

  0
CIRCLE
  5
E0
  8
001
 62
     5
 10
185.21227099999999
 20
261.90592900000001
 30
0.0
 40
0.3999999999999976
  0
ENDBLK
  5
DF
  8
0
  0
BLOCK
  8
0
  2
JZB-11
 70
     0
 10
0.0
 20
0.0
 30
0.0
  3
JZB-11
  1

  0
CIRCLE
  5
E4
  8
001
 62
     5
 10
185.21227099999999
 20
228.43141299999999
 30
0.0
 40
0.4000000000000005
  0
ENDBLK
  5
E3
  8
0
  0
BLOCK
  8
0
  2
JZB-12
 70
     0
 10
0.0
 20
0.0
 30
0.0
  3
JZB-12
  1

  0
LINE
  5
E8
  8
001
 62
     5
 10
171.775013
 20
258.46867099999997
 30
0.0
 11
169.97501299999999
 21
258.46867099999997
 31
0.0
  0
LINE
  5
E9
  8
001
 62
     5
 10
171.775013
 20
258.628671
 30
0.0
 11
169.97501299999999
 21
258.628671
 31
0.0
  0
LINE
  5
EA
  8
001
 62
     5
 10
172.17501300000001
 20
259.90867100000003
 30
0.0
 11
169.57501300000001
 21
259.90867100000003
 31
0.0
  0
LINE
  5
EB
  8
001
 62
     5
 10
172.01501300000001
 20
260.06867099999999
 30
0.0
 11
169.73501300000001
 21
260.06867099999999
 31
0.0
  0
LINE
  5
EC
  8
001
 62
     5
 10
172.17501300000001
 20
259.90867100000003
 30
0.0
 11
172.01501300000001
 21
260.06867099999999
 31
0.0
  0
LINE
  5
ED
  8
001
 62
     5
 10
169.73501300000001
 20
260.06867099999999
 30
0.0
 11
169.57501300000001
 21
259.90867100000003
 31
0.0
  0
LINE
  5
EE
  8
001
 62
     5
 10
172.17501300000001
 20
258.66867100000002
 30
0.0
 11
172.17501300000001
 21
259.90867100000003
 31
0.0
  0
LINE
  5
EF
  8
001
 62
     5
 10
169.57501300000001
 20
259.90867100000003
 30
0.0
 11
169.57501300000001
 21
258.66867100000002
 31
0.0
  0
LINE
  5
F0
  8
001
 62
     5
 10
170.07501300000001
 20
258.46867099999997
 30
0.0
 11
170.07501300000001
 21
257.66867100000002
 31
0.0
  0
LINE
  5
F1
  8
001
 62
     5
 10
171.67501300000001
 20
257.66867100000002
 30
0.0
 11
171.67501300000001
 21
258.46867099999997
 31
0.0
  0
ENDBLK
  5
E7
  8
0
  0
BLOCK
  8
0
  2
JZB-13
 70
     0
 10
0.0
 20
0.0
 30
0.0
  3
JZB-13
  1

  0
LINE
  5
F5
  8
001
 62
     5
 10
164.17501300000001
 20
259.90867100000003
 30
0.0
 11
161.57501300000001
 21
259.90867100000003
 31
0.0
  0
LINE
  5
F6
  8
001
 62
     5
 10
164.01501300000001
 20
260.06867099999999
 30
0.0
 11
161.73501300000001
 21
260.06867099999999
 31
0.0
  0
LINE
  5
F7
  8
001
 62
     5
 10
164.17501300000001
 20
259.90867100000003
 30
0.0
 11
164.01501300000001
 21
260.06867099999999
 31
0.0
  0
LINE
  5
F8
  8
001
 62
     5
 10
161.73501300000001
 20
260.06867099999999
 30
0.0
 11
161.57501300000001
 21
259.90867100000003
 31
0.0
  0
LINE
  5
F9
  8
001
 62
     5
 10
163.775013
 20
258.628671
 30
0.0
 11
161.97501299999999
 21
258.628671
 31
0.0
  0
LINE
  5
FA
  8
001
 62
     5
 10
164.17501300000001
 20
258.66867100000002
 30
0.0
 11
164.17501300000001
 21
259.90867100000003
 31
0.0
  0
LINE
  5
FB
  8
001
 62
     5
 10
161.57501300000001
 20
259.90867100000003
 30
0.0
 11
161.57501300000001
 21
258.66867100000002
 31
0.0
  0
LINE
  5
FC
  8
001
 62
     5
 10
163.775013
 20
258.46867099999997
 30
0.0
 11
161.97501299999999
 21
258.46867099999997
 31
0.0
  0
LINE
  5
FD
  8
001
 62
     5
 10
162.07501300000001
 20
258.46867099999997
 30
0.0
 11
162.07501300000001
 21
257.66867100000002
 31
0.0
  0
LINE
  5
FE
  8
001
 62
     5
 10
163.67501300000001
 20
257.66867100000002
 30
0.0
 11
163.67501300000001
 21
258.46867099999997
 31
0.0
  0
ENDBLK
  5
F4
  8
0
  0
BLOCK
  8
0
  2
JZB-14
 70
     0
 10
0.0
 20
0.0
 30
0.0
  3
JZB-14
  1

  0
LINE
  5
102
  8
001
 62
     1
 10
284.06323700000002
 20
146.93957800000001
 30
0.0
 11
284.263237
 21
146.93957800000001
 31
0.0
  0
LINE
  5
103
  8
001
 62
     1
 10
284.263237
 20
149.71654899999999
 30
0.0
 11
284.06323700000002
 21
149.71654899999999
 31
0.0
  0
LINE
  5
104
  8
001
 62
     1
 10
284.263237
 20
149.71654899999999
 30
0.0
 11
284.263237
 21
146.93957800000001
 31
0.0
  0
ENDBLK
  5
101
  8
0
  0
BLOCK
  8
0
  2
V-15
 70
     0
 10
0.0
 20
0.0
 30
0.0
  3
V-15
  1

  0
LINE
  5
108
  8
001
 62
   140
 10
276.66323699999998
 20
169.41377800000001
 30
0.0
 11
268.263237
 21
169.41377800000001
 31
0.0
  0
LINE
  5
109
  8
001
 62
   140
 10
276.66323699999998
 20
168.85377800000001
 30
0.0
 11
276.66323699999998
 21
169.41377800000001
 31
0.0
  0
LINE
  5
10A
  8
001
 62
   140
 10
268.263237
 20
169.41377800000001
 30
0.0
 11
268.263237
 21
168.85377800000001
 31
0.0
  0
ENDBLK
  5
107
  8
0
  0
BLOCK
  8
0
  2
JZB-16
 70
     0
 10
0.0
 20
0.0
 30
0.0
  3
JZB-16
  1

  0
LINE
  5
10E
  8
001
 62
     5
 10
265.15357499999999
 20
175.865162
 30
0.0
 11
265.32328100000001
 21
175.865162
 31
0.0
  0
LINE
  5
10F
  8
001
 62
     5
 10
266.567789
 20
177.10966999999999
 30
0.0
 11
266.567789
 21
177.27937499999999
 31
0.0
  0
LINE
  5
110
  8
001
 62
     5
 10
265.15357499999999
 20
175.865162
 30
0.0
 11
266.567789
 21
177.27937499999999
 31
0.0
  0
LINE
  5
111
  8
001
 62
     5
 10
265.32328100000001
 20
175.865162
 30
0.0
 11
266.567789
 21
177.10966999999999
 31
0.0
  0
LINE
  5
112
  8
001
 62
     5
 10
264.47475200000002
 20
176.54398399999999
 30
0.0
 11
265.15357499999999
 21
175.865162
 31
0.0
  0
LINE
  5
113
  8
001
 62
     5
 10
266.567789
 20
177.27937499999999
 30
0.0
 11
265.88896599999998
 21
177.95819800000001
 31
0.0
  0
LINE
  5
114
  8
001
 62
     5
 10
264.47475200000002
 20
176.54398399999999
 30
0.0
 11
265.88896599999998
 21
177.95819800000001
 31
0.0
  0
LINE
  5
115
  8
001
 62
     5
 10
265.88896599999998
 20
177.95819800000001
 30
0.0
 11
265.80591900000002
 21
177.95819800000001
 31
0.0
  0
LINE
  5
116
  8
001
 62
     5
 10
264.47475200000002
 20
176.62703200000001
 30
0.0
 11
264.47475200000002
 21
176.54398399999999
 31
0.0
  0
ENDBLK
  5
10D
  8
0
  0
BLOCK
  8
0
  2
JZB-17
 70
     0
 10
0.0
 20
0.0
 30
0.0
  3
JZB-17
  1

  0
LINE
  5
11A
  8
001
 62
     5
 10
268.05361499999998
 20
180.03618899999989
 30
0.0
 11
267.88391000000001
 21
180.03618899999989
 31
0.0
  0
LINE
  5
11B
  8
001
 62
     5
 10
266.63940200000002
 20
178.79168100000001
 30
0.0
 11
266.63940200000002
 21
178.62197599999999
 31
0.0
  0
LINE
  5
11C
  8
001
 62
     5
 10
266.63940200000002
 20
178.62197599999999
 30
0.0
 11
268.05361499999998
 21
180.03618899999989
 31
0.0
  0
LINE
  5
11D
  8
001
 62
     5
 10
267.31822399999999
 20
177.943153
 30
0.0
 11
267.48793000000001
 21
177.943153
 31
0.0
  0
LINE
  5
11E
  8
001
 62
     5
 10
268.732438
 20
179.18766099999999
 30
0.0
 11
268.732438
 21
179.3573669999999
 31
0.0
  0
LINE
  5
11F
  8
001
 62
     5
 10
267.31822399999999
 20
177.943153
 30
0.0
 11
268.732438
 21
179.3573669999999
 31
0.0
  0
LINE
  5
120
  8
001
 62
     5
 10
267.48793000000001
 20
177.943153
 30
0.0
 11
268.732438
 21
179.18766099999999
 31
0.0
  0
LINE
  5
121
  8
001
 62
     5
 10
266.63940200000002
 20
178.62197599999999
 30
0.0
 11
267.31822399999999
 21
177.943153
 31
0.0
  0
LINE
  5
122
  8
001
 62
     5
 10
268.732438
 20
179.3573669999999
 30
0.0
 11
268.05361499999998
 21
180.03618899999989
 31
0.0
  0
ENDBLK
  5
119
  8
0
  0
BLOCK
  8
0
  2
L-18
 70
     0
 10
0.0
 20
0.0
 30
0.0
  3
L-18
  1

  0
LINE
  5
126
  8
001
 62
   253
 10
273.66323700000009
 20
169.41377800000001
 30
0.0
 11
273.66323700000009
 21
170.013778
 31
0.0
  0
LINE
  5
127
  8
001
 62
   253
 10
271.263237
 20
170.013778
 30
0.0
 11
271.263237
 21
169.41377800000001
 31
0.0
  0
ENDBLK
  5
125
  8
0
  0
BLOCK
  8
0
  2
JZB-19
 70
     0
 10
0.0
 20
0.0
 30
0.0
  3
JZB-19
  1

  0
LINE
  5
12B
  8
001
 10
144.875013
 20
133.013778
 30
0.0
 11
145.275013
 21
133.013778
 31
0.0
  0
LINE
  5
12C
  8
001
 10
144.875013
 20
149.013778
 30
0.0
 11
145.275013
 21
149.013778
 31
0.0
  0
LINE
  5
12D
  8
001
 10
144.875013
 20
149.81377800000001
 30
0.0
 11
145.275013
 21
149.81377800000001
 31
0.0
  0
LINE
  5
12E
  8
001
 10
144.875013
 20
132.21377799999999
 30
0.0
 11
145.275013
 21
132.21377799999999
 31
0.0
  0
LINE
  5
12F
  8
001
 10
144.875013
 20
132.21377799999999
 30
0.0
 11
144.875013
 21
149.81377800000001
 31
0.0
  0
LINE
  5
130
  8
001
 10
144.875013
 20
133.56377800000001
 30
0.0
 11
144.70556300000001
 21
133.54895300000001
 31
0.0
  0
LINE
  5
131
  8
001
 10
144.70556300000001
 20
132.47860299999999
 30
0.0
 11
144.875013
 21
132.46377799999999
 31
0.0
  0
LINE
  5
132
  8
001
 10
144.875013
 20
149.56377800000001
 30
0.0
 11
144.70556300000001
 21
149.54895300000001
 31
0.0
  0
LINE
  5
133
  8
001
 10
144.70556300000001
 20
148.47860299999999
 30
0.0
 11
144.875013
 21
148.46377799999999
 31
0.0
  0
ARC
  5
134
  8
001
 10
144.722994
 20
133.34971399999989
 30
0.0
 40
0.2000000000000001
 50
95.0
 51
163.74297200000001
  0
ARC
  5
135
  8
001
 10
144.722994
 20
132.677842
 30
0.0
 40
0.2000000000000001
 50
196.25702799999999
 51
265.0
  0
ARC
  5
136
  8
001
 10
144.722994
 20
149.34971400000001
 30
0.0
 40
0.2000000000000001
 50
95.0
 51
163.74297200000001
  0
ARC
  5
137
  8
001
 10
144.722994
 20
148.677842
 30
0.0
 40
0.2000000000000001
 50
196.25702799999999
 51
265.0
  0
POLYLINE
  5
138
  8
001
 66
     1
 10
0.0
 20
0.0
 30
0.0
  0
VERTEX
  5
13A
  8
001
 10
144.52400700000001
 20
149.373785
 30
0.0
  0
VERTEX
  5
13B
  8
001
 10
144.523448
 20
149.37375299999999
 30
0.0
  0
VERTEX
  5
13C
  8
001
 10
144.52257
 20
149.37378200000001
 30
0.0
  0
VERTEX
  5
13D
  8
001
 10
144.522254
 20
149.373819
 30
0.0
  0
VERTEX
  5
13E
  8
001
 10
144.52208999999999
 20
149.37377799999999
 30
0.0
  0
SEQEND
  5
139
  8
001
  0
ARC
  5
13F
  8
001
 10
145.875013
 20
149.013778
 30
0.0
 40
1.399999999999999
 50
194.900597
 51
196.25702799999999
  0
ARC
  5
140
  8
001
 10
145.875013
 20
149.013778
 30
0.0
 40
1.399999999999999
 50
163.74297200000001
 51
165.099403
  0
POLYLINE
  5
141
  8
001
 66
     1
 10
0.0
 20
0.0
 30
0.0
  0
VERTEX
  5
143
  8
001
 10
144.52400700000001
 20
148.94181499999999
 30
0.0
  0
VERTEX
  5
144
  8
001
 10
144.513485
 20
148.941811
 30
0.0
  0
VERTEX
  5
145
  8
001
 10
144.49810600000001
 20
148.94180299999999
 30
0.0
  0
VERTEX
  5
146
  8
001
 10
144.48659599999999
 20
148.9417949999999
 30
0.0
  0
VERTEX
  5
147
  8
001
 10
144.47872100000001
 20
148.94178500000001
 30
0.0
  0
SEQEND
  5
142
  8
001
  0
ARC
  5
148
  8
001
 10
145.875013
 20
149.01381499999999
 30
0.0
 40
1.352922762023024
 50
176.94938500000001
 51
183.05061499999999
  0
POLYLINE
  5
149
  8
001
 66
     1
 10
0.0
 20
0.0
 30
0.0
  0
VERTEX
  5
14B
  8
001
 10
144.52400700000001
 20
149.085815
 30
0.0
  0
VERTEX
  5
14C
  8
001
 10
144.513485
 20
149.08581100000001
 30
0.0
  0
VERTEX
  5
14D
  8
001
 10
144.49810600000001
 20
149.085803
 30
0.0
  0
VERTEX
  5
14E
  8
001
 10
144.48659599999999
 20
149.08579499999999
 30
0.0
  0
VERTEX
  5
14F
  8
001
 10
144.47872100000001
 20
149.08578499999999
 30
0.0
  0
SEQEND
  5
14A
  8
001
  0
ARC
  5
150
  8
001
 10
145.875013
 20
149.01378500000001
 30
0.0
 40
1.398147345597021
 50
165.07919999999999
 51
177.04814999999999
  0
POLYLINE
  5
151
  8
001
 66
     1
 10
0.0
 20
0.0
 30
0.0
  0
VERTEX
  5
153
  8
001
 10
144.52208999999999
 20
149.37377799999999
 30
0.0
  0
VERTEX
  5
154
  8
001
 10
144.522233
 20
149.37373700000001
 30
0.0
  0
VERTEX
  5
155
  8
001
 10
144.522569
 20
149.373774
 30
0.0
  0
VERTEX
  5
156
  8
001
 10
144.52346499999999
 20
149.37380300000001
 30
0.0
  0
VERTEX
  5
157
  8
001
 10
144.52400700000001
 20
149.37377000000001
 30
0.0
  0
SEQEND
  5
152
  8
001
  0
POLYLINE
  5
158
  8
001
 66
     1
 10
0.0
 20
0.0
 30
0.0
  0
VERTEX
  5
15A
  8
001
 10
144.47872100000001
 20
149.08577
 30
0.0
  0
VERTEX
  5
15B
  8
001
 10
144.48659599999999
 20
149.08576099999999
 30
0.0
  0
VERTEX
  5
15C
  8
001
 10
144.49810600000001
 20
149.08575300000001
 30
0.0
  0
VERTEX
  5
15D
  8
001
 10
144.513485
 20
149.085745
 30
0.0
  0
VERTEX
  5
15E
  8
001
 10
144.52400700000001
 20
149.08574100000001
 30
0.0
  0
SEQEND
  5
159
  8
001
  0
POLYLINE
  5
15F
  8
001
 66
     1
 10
0.0
 20
0.0
 30
0.0
  0
VERTEX
  5
161
  8
001
 10
144.52400700000001
 20
148.653785
 30
0.0
  0
VERTEX
  5
162
  8
001
 10
144.52346499999999
 20
148.653752
 30
0.0
  0
VERTEX
  5
163
  8
001
 10
144.522569
 20
148.65378200000001
 30
0.0
  0
VERTEX
  5
164
  8
001
 10
144.522233
 20
148.653819
 30
0.0
  0
VERTEX
  5
165
  8
001
 10
144.52208999999999
 20
148.65377799999999
 30
0.0
  0
SEQEND
  5
160
  8
001
  0
ARC
  5
166
  8
001
 10
145.875013
 20
149.01378500000001
 30
0.0
 40
1.398147345597021
 50
182.95185000000001
 51
194.92080000000001
  0
POLYLINE
  5
167
  8
001
 66
     1
 10
0.0
 20
0.0
 30
0.0
  0
VERTEX
  5
169
  8
001
 10
144.52400700000001
 20
133.373785
 30
0.0
  0
VERTEX
  5
16A
  8
001
 10
144.523448
 20
133.37375299999999
 30
0.0
  0
VERTEX
  5
16B
  8
001
 10
144.52257
 20
133.37378200000001
 30
0.0
  0
VERTEX
  5
16C
  8
001
 10
144.522254
 20
133.373819
 30
0.0
  0
VERTEX
  5
16D
  8
001
 10
144.52208999999999
 20
133.37377799999999
 30
0.0
  0
SEQEND
  5
168
  8
001
  0
ARC
  5
16E
  8
001
 10
145.875013
 20
133.013778
 30
0.0
 40
1.399999999999999
 50
194.900597
 51
196.25702799999999
  0
ARC
  5
16F
  8
001
 10
145.875013
 20
133.013778
 30
0.0
 40
1.399999999999999
 50
163.74297200000001
 51
165.099403
  0
POLYLINE
  5
170
  8
001
 66
     1
 10
0.0
 20
0.0
 30
0.0
  0
VERTEX
  5
172
  8
001
 10
144.52400700000001
 20
132.94181499999999
 30
0.0
  0
VERTEX
  5
173
  8
001
 10
144.513485
 20
132.941811
 30
0.0
  0
VERTEX
  5
174
  8
001
 10
144.49810600000001
 20
132.94180299999999
 30
0.0
  0
VERTEX
  5
175
  8
001
 10
144.48659599999999
 20
132.94179500000001
 30
0.0
  0
VERTEX
  5
176
  8
001
 10
144.47872100000001
 20
132.94178500000001
 30
0.0
  0
SEQEND
  5
171
  8
001
  0
ARC
  5
177
  8
001
 10
145.875013
 20
133.01381499999999
 30
0.0
 40
1.352922762023024
 50
176.94938500000001
 51
183.05061499999999
  0
POLYLINE
  5
178
  8
001
 66
     1
 10
0.0
 20
0.0
 30
0.0
  0
VERTEX
  5
17A
  8
001
 10
144.52400700000001
 20
133.085815
 30
0.0
  0
VERTEX
  5
17B
  8
001
 10
144.513485
 20
133.08581100000001
 30
0.0
  0
VERTEX
  5
17C
  8
001
 10
144.49810600000001
 20
133.085803
 30
0.0
  0
VERTEX
  5
17D
  8
001
 10
144.48659599999999
 20
133.08579499999999
 30
0.0
  0
VERTEX
  5
17E
  8
001
 10
144.47872100000001
 20
133.08578499999999
 30
0.0
  0
SEQEND
  5
179
  8
001
  0
ARC
  5
17F
  8
001
 10
145.875013
 20
133.01378500000001
 30
0.0
 40
1.398147345597021
 50
165.07919999999999
 51
177.04814999999999
  0
POLYLINE
  5
180
  8
001
 66
     1
 10
0.0
 20
0.0
 30
0.0
  0
VERTEX
  5
182
  8
001
 10
144.52208999999999
 20
133.37377799999999
 30
0.0
  0
VERTEX
  5
183
  8
001
 10
144.522233
 20
133.37373700000001
 30
0.0
  0
VERTEX
  5
184
  8
001
 10
144.522569
 20
133.373774
 30
0.0
  0
VERTEX
  5
185
  8
001
 10
144.52346499999999
 20
133.37380300000001
 30
0.0
  0
VERTEX
  5
186
  8
001
 10
144.52400700000001
 20
133.37377000000001
 30
0.0
  0
SEQEND
  5
181
  8
001
  0
POLYLINE
  5
187
  8
001
 66
     1
 10
0.0
 20
0.0
 30
0.0
  0
VERTEX
  5
189
  8
001
 10
144.47872100000001
 20
133.08577
 30
0.0
  0
VERTEX
  5
18A
  8
001
 10
144.48659599999999
 20
133.08576099999999
 30
0.0
  0
VERTEX
  5
18B
  8
001
 10
144.49810600000001
 20
133.08575300000001
 30
0.0
  0
VERTEX
  5
18C
  8
001
 10
144.513485
 20
133.085745
 30
0.0
  0
VERTEX
  5
18D
  8
001
 10
144.52400700000001
 20
133.08574100000001
 30
0.0
  0
SEQEND
  5
188
  8
001
  0
POLYLINE
  5
18E
  8
001
 66
     1
 10
0.0
 20
0.0
 30
0.0
  0
VERTEX
  5
190
  8
001
 10
144.52400700000001
 20
132.653785
 30
0.0
  0
VERTEX
  5
191
  8
001
 10
144.52346499999999
 20
132.653752
 30
0.0
  0
VERTEX
  5
192
  8
001
 10
144.522569
 20
132.65378200000001
 30
0.0
  0
VERTEX
  5
193
  8
001
 10
144.522233
 20
132.653819
 30
0.0
  0
VERTEX
  5
194
  8
001
 10
144.52208999999999
 20
132.65377799999999
 30
0.0
  0
SEQEND
  5
18F
  8
001
  0
ARC
  5
195
  8
001
 10
145.875013
 20
133.01378500000001
 30
0.0
 40
1.398147345597021
 50
182.95185000000001
 51
194.92080000000001
  0
LINE
  5
196
  8
001
 10
144.47872100000001
 20
149.08578499999999
 30
0.0
 11
144.52400600000001
 21
149.08578499999999
 31
0.0
  0
LINE
  5
197
  8
001
 10
144.47872100000001
 20
133.08578499999999
 30
0.0
 11
144.52400600000001
 21
133.08578499999999
 31
0.0
  0
LINE
  5
198
  8
001
 10
144.47501299999999
 20
141.613778
 30
0.0
 11
144.875013
 21
141.613778
 31
0.0
  0
LINE
  5
199
  8
001
 10
144.47501299999999
 20
141.613778
 30
0.0
 11
144.47501299999999
 21
148.013778
 31
0.0
  0
LINE
  5
19A
  8
001
 10
144.47501299999999
 20
148.013778
 30
0.0
 11
144.875013
 21
148.013778
 31
0.0
  0
LINE
  5
19B
  8
001
 10
144.37691000000001
 20
137.34906799999999
 30
0.0
 11
144.37691000000001
 21
134.69377800000001
 31
0.0
  0
LINE
  5
19C
  8
001
 10
144.875013
 20
137.9490679999999
 30
0.0
 11
144.37691000000001
 21
137.34906799999999
 31
0.0
  0
LINE
  5
19D
  8
001
 10
144.37691000000001
 20
134.69377800000001
 30
0.0
 11
144.875013
 21
134.09377799999999
 31
0.0
  0
LINE
  5
19E
  8
001
 10
143.39449200000001
 20
142.36614299999999
 30
0.0
 11
143.42719700000001
 21
142.53636299999999
 31
0.0
  0
LINE
  5
19F
  8
001
 10
144.34294600000001
 20
147.30251999999999
 30
0.0
 11
144.375651
 21
147.47273899999999
 31
0.0
  0
LINE
  5
1A0
  8
001
 10
144.34294600000001
 20
147.30251999999999
 30
0.0
 11
144.435013
 21
144.81377800000001
 31
0.0
  0
LINE
  5
1A1
  8
001
 10
143.39449200000001
 20
142.36614299999999
 30
0.0
 11
144.47501299999999
 21
142.158536
 31
0.0
  0
LINE
  5
1A2
  8
001
 10
144.375651
 20
147.47273899999999
 30
0.0
 11
144.47501299999999
 21
147.45364900000001
 31
0.0
  0
LINE
  5
1A3
  8
001
 10
144.435013
 20
144.81377800000001
 30
0.0
 11
143.42719700000001
 21
142.53636299999999
 31
0.0
  0
ENDBLK
  5
12A
  8
0
  0
BLOCK
  8
0
  2
JZB-20
 70
     0
 10
0.0
 20
0.0
 30
0.0
  3
JZB-20
  1

  0
POLYLINE
  5
1A7
  8
001
 62
     5
 66
     1
 10
0.0
 20
0.0
 30
0.0
  0
VERTEX
  5
1A9
  8
001
 62
     5
 10
349.82994400000001
 20
175.865162
 30
0.0
  0
VERTEX
  5
1AA
  8
001
 62
     5
 10
349.89359400000001
 20
175.86753200000001
 30
0.0
  0
VERTEX
  5
1AB
  8
001
 62
     5
 10
349.982755
 20
175.87461500000001
 30
0.0
  0
VERTEX
  5
1AC
  8
001
 62
     5
 10
350.13680099999999
 20
175.90192500000001
 30
0.0
  0
VERTEX
  5
1AD
  8
001
 62
     5
 10
350.26994400000001
 20
175.94852800000001
 30
0.0
  0
VERTEX
  5
1AE
  8
001
 62
     5
 10
350.44305900000001
 20
176.04302899999999
 30
0.0
  0
VERTEX
  5
1AF
  8
001
 62
     5
 10
350.59204699999998
 20
176.176289
 30
0.0
  0
VERTEX
  5
1B0
  8
001
 62
     5
 10
350.62715600000001
 20
176.22375500000001
 30
0.0
  0
VERTEX
  5
1B1
  8
001
 62
     5
 10
350.65687400000002
 20
176.27459200000001
 30
0.0
  0
VERTEX
  5
1B2
  8
001
 62
     5
 10
350.67972099999997
 20
176.32583299999999
 30
0.0
  0
VERTEX
  5
1B3
  8
001
 62
     5
 10
350.696575
 20
176.37936300000001
 30
0.0
  0
VERTEX
  5
1B4
  8
001
 62
     5
 10
350.70656400000001
 20
176.432984
 30
0.0
  0
VERTEX
  5
1B5
  8
001
 62
     5
 10
350.70994400000001
 20
176.487416
 30
0.0
  0
VERTEX
  5
1B6
  8
001
 62
     5
 10
350.70656400000001
 20
176.54184799999999
 30
0.0
  0
VERTEX
  5
1B7
  8
001
 62
     5
 10
350.696575
 20
176.59546900000001
 30
0.0
  0
VERTEX
  5
1B8
  8
001
 62
     5
 10
350.67972099999997
 20
176.64899800000001
 30
0.0
  0
VERTEX
  5
1B9
  8
001
 62
     5
 10
350.65687400000002
 20
176.70023900000001
 30
0.0
  0
VERTEX
  5
1BA
  8
001
 62
     5
 10
350.62715600000001
 20
176.75107700000001
 30
0.0
  0
VERTEX
  5
1BB
  8
001
 62
     5
 10
350.59204699999998
 20
176.798543
 30
0.0
  0
VERTEX
  5
1BC
  8
001
 62
     5
 10
350.44305900000001
 20
176.931803
 30
0.0
  0
VERTEX
  5
1BD
  8
001
 62
     5
 10
350.26994400000001
 20
177.02630400000001
 30
0.0
  0
VERTEX
  5
1BE
  8
001
 62
     5
 10
350.13680099999999
 20
177.07290599999999
 30
0.0
  0
VERTEX
  5
1BF
  8
001
 62
     5
 10
349.982755
 20
177.10021599999999
 30
0.0
  0
VERTEX
  5
1C0
  8
001
 62
     5
 10
349.89359400000001
 20
177.10729900000001
 30
0.0
  0
VERTEX
  5
1C1
  8
001
 62
     5
 10
349.82994400000001
 20
177.10966999999999
 30
0.0
  0
SEQEND
  5
1A8
  8
001
  0
POLYLINE
  5
1C2
  8
001
 62
     5
 66
     1
 10
0.0
 20
0.0
 30
0.0
  0
VERTEX
  5
1C4
  8
001
 62
     5
 10
350.82994400000001
 20
177.251091
 30
0.0
  0
VERTEX
  5
1C5
  8
001
 62
     5
 10
350.82610499999998
 20
177.30305799999999
 30
0.0
  0
VERTEX
  5
1C6
  8
001
 62
     5
 10
350.814752
 20
177.37387899999999
 30
0.0
  0
VERTEX
  5
1C7
  8
001
 62
     5
 10
350.79558900000001
 20
177.43751
 30
0.0
  0
VERTEX
  5
1C8
  8
001
 62
     5
 10
350.76963699999999
 20
177.49293599999999
 30
0.0
  0
VERTEX
  5
1C9
  8
001
 62
     5
 10
350.73591299999998
 20
177.54978
 30
0.0
  0
VERTEX
  5
1CA
  8
001
 62
     5
 10
350.69596999999999
 20
177.604645
 30
0.0
  0
VERTEX
  5
1CB
  8
001
 62
     5
 10
350.52559300000001
 20
177.757578
 30
0.0
  0
VERTEX
  5
1CC
  8
001
 62
     5
 10
350.32994400000001
 20
177.86346399999999
 30
0.0
  0
VERTEX
  5
1CD
  8
001
 62
     5
 10
350.18179500000002
 20
177.91493600000001
 30
0.0
  0
VERTEX
  5
1CE
  8
001
 62
     5
 10
350.00359200000003
 20
177.94745499999999
 30
0.0
  0
VERTEX
  5
1CF
  8
001
 62
     5
 10
349.98692999999997
 20
177.94940600000001
 30
0.0
  0
VERTEX
  5
1D0
  8
001
 62
     5
 10
349.97542099999998
 20
177.95067599999999
 30
0.0
  0
SEQEND
  5
1C3
  8
001
  0
POLYLINE
  5
1D1
  8
001
 62
     5
 66
     1
 10
0.0
 20
0.0
 30
0.0
  0
VERTEX
  5
1D3
  8
001
 62
     5
 10
349.82994400000001
 20
175.865162
 30
0.0
  0
VERTEX
  5
1D4
  8
001
 62
     5
 10
349.90227299999998
 20
175.86784299999999
 30
0.0
  0
VERTEX
  5
1D5
  8
001
 62
     5
 10
350.00359200000003
 20
175.87590399999999
 30
0.0
  0
VERTEX
  5
1D6
  8
001
 62
     5
 10
350.17864500000002
 20
175.90710899999999
 30
0.0
  0
VERTEX
  5
1D7
  8
001
 62
     5
 10
350.32994400000001
 20
175.95989599999999
 30
0.0
  0
VERTEX
  5
1D8
  8
001
 62
     5
 10
350.52666599999998
 20
176.06622899999999
 30
0.0
  0
VERTEX
  5
1D9
  8
001
 62
     5
 10
350.69596999999999
 20
176.218715
 30
0.0
  0
VERTEX
  5
1DA
  8
001
 62
     5
 10
350.73586699999998
 20
176.27356
 30
0.0
  0
VERTEX
  5
1DB
  8
001
 62
     5
 10
350.76963699999999
 20
176.33042399999999
 30
0.0
  0
VERTEX
  5
1DC
  8
001
 62
     5
 10
350.79559999999998
 20
176.38585399999999
 30
0.0
  0
VERTEX
  5
1DD
  8
001
 62
     5
 10
350.814752
 20
176.44948099999999
 30
0.0
  0
VERTEX
  5
1DE
  8
001
 62
     5
 10
350.82610299999999
 20
176.52030099999999
 30
0.0
  0
VERTEX
  5
1DF
  8
001
 62
     5
 10
350.82994400000001
 20
176.57226900000001
 30
0.0
  0
SEQEND
  5
1D2
  8
001
  0
POLYLINE
  5
1E0
  8
001
 62
     5
 66
     1
 10
0.0
 20
0.0
 30
0.0
  0
VERTEX
  5
1E2
  8
001
 62
     5
 10
350.82994400000001
 20
176.57226900000001
 30
0.0
  0
VERTEX
  5
1E3
  8
001
 62
     5
 10
350.82610299999999
 20
176.624236
 30
0.0
  0
VERTEX
  5
1E4
  8
001
 62
     5
 10
350.814752
 20
176.69505599999999
 30
0.0
  0
VERTEX
  5
1E5
  8
001
 62
     5
 10
350.79559999999998
 20
176.75868299999999
 30
0.0
  0
VERTEX
  5
1E6
  8
001
 62
     5
 10
350.76963699999999
 20
176.81411299999999
 30
0.0
  0
VERTEX
  5
1E7
  8
001
 62
     5
 10
350.73586699999998
 20
176.87097700000001
 30
0.0
  0
VERTEX
  5
1E8
  8
001
 62
     5
 10
350.69596999999999
 20
176.92582200000001
 30
0.0
  0
VERTEX
  5
1E9
  8
001
 62
     5
 10
350.52666599999998
 20
177.07830799999999
 30
0.0
  0
VERTEX
  5
1EA
  8
001
 62
     5
 10
350.32994400000001
 20
177.184641
 30
0.0
  0
VERTEX
  5
1EB
  8
001
 62
     5
 10
350.17864500000002
 20
177.23742799999999
 30
0.0
  0
VERTEX
  5
1EC
  8
001
 62
     5
 10
350.00359200000003
 20
177.26863299999999
 30
0.0
  0
VERTEX
  5
1ED
  8
001
 62
     5
 10
349.90227299999998
 20
177.27669399999999
 30
0.0
  0
VERTEX
  5
1EE
  8
001
 62
     5
 10
349.82994400000001
 20
177.27937499999999
 30
0.0
  0
SEQEND
  5
1E1
  8
001
  0
LINE
  5
1EF
  8
001
 62
     5
 10
350.82994400000001
 20
176.57226900000001
 30
0.0
 11
350.82994400000001
 21
177.251091
 31
0.0
  0
LINE
  5
1F0
  8
001
 62
     5
 10
349.82994400000001
 20
176.13713899999999
 30
0.0
 11
350.11594400000001
 21
176.13713899999999
 31
0.0
  0
LINE
  5
1F1
  8
001
 62
     5
 10
350.11594400000001
 20
176.13713899999999
 30
0.0
 11
350.40194400000001
 21
176.487416
 31
0.0
  0
LINE
  5
1F2
  8
001
 62
     5
 10
350.40194400000001
 20
176.487416
 30
0.0
 11
350.11594400000001
 21
176.837693
 31
0.0
  0
LINE
  5
1F3
  8
001
 62
     5
 10
350.11594400000001
 20
176.837693
 30
0.0
 11
349.82994400000001
 21
176.837693
 31
0.0
  0
LINE
  5
1F4
  8
001
 62
     5
 10
350.11594400000001
 20
176.13713899999999
 30
0.0
 11
350.11594400000001
 21
176.56140300000001
 31
0.0
  0
LINE
  5
1F5
  8
001
 62
     5
 10
350.11594400000001
 20
176.56140300000001
 30
0.0
 11
350.22873900000002
 21
176.69954799999999
 31
0.0
  0
LINE
  5
1F6
  8
001
 62
     5
 10
349.82994400000001
 20
176.56140300000001
 30
0.0
 11
350.11594400000001
 21
176.56140300000001
 31
0.0
  0
ENDBLK
  5
1A6
  8
0
  0
BLOCK
  8
0
  2
JZB-21
 70
     0
 10
0.0
 20
0.0
 30
0.0
  3
JZB-21
  1

  0
POLYLINE
  5
1FA
  8
001
 62
     5
 66
     1
 10
0.0
 20
0.0
 30
0.0
  0
VERTEX
  5
1FC
  8
001
 62
     5
 10
349.82994400000001
 20
177.943153
 30
0.0
  0
VERTEX
  5
1FD
  8
001
 62
     5
 10
349.89359400000001
 20
177.94552400000001
 30
0.0
  0
VERTEX
  5
1FE
  8
001
 62
     5
 10
349.982755
 20
177.952607
 30
0.0
  0
VERTEX
  5
1FF
  8
001
 62
     5
 10
350.13680099999999
 20
177.979917
 30
0.0
  0
VERTEX
  5
200
  8
001
 62
     5
 10
350.26994400000001
 20
178.02651900000001
 30
0.0
  0
VERTEX
  5
201
  8
001
 62
     5
 10
350.44305900000001
 20
178.12101999999999
 30
0.0
  0
VERTEX
  5
202
  8
001
 62
     5
 10
350.59204699999998
 20
178.25427999999999
 30
0.0
  0
VERTEX
  5
203
  8
001
 62
     5
 10
350.62715600000001
 20
178.30174600000001
 30
0.0
  0
VERTEX
  5
204
  8
001
 62
     5
 10
350.65687400000002
 20
178.35258400000001
 30
0.0
  0
VERTEX
  5
205
  8
001
 62
     5
 10
350.67972099999997
 20
178.40382500000001
 30
0.0
  0
VERTEX
  5
206
  8
001
 62
     5
 10
350.696575
 20
178.45735400000001
 30
0.0
  0
VERTEX
  5
207
  8
001
 62
     5
 10
350.70656400000001
 20
178.510975
 30
0.0
  0
VERTEX
  5
208
  8
001
 62
     5
 10
350.70994400000001
 20
178.56540699999999
 30
0.0
  0
VERTEX
  5
209
  8
001
 62
     5
 10
350.70656400000001
 20
178.61983900000001
 30
0.0
  0
VERTEX
  5
20A
  8
001
 62
     5
 10
350.696575
 20
178.67346000000001
 30
0.0
  0
VERTEX
  5
20B
  8
001
 62
     5
 10
350.67972099999997
 20
178.72699
 30
0.0
  0
VERTEX
  5
20C
  8
001
 62
     5
 10
350.65687400000002
 20
178.77823000000001
 30
0.0
  0
VERTEX
  5
20D
  8
001
 62
     5
 10
350.62715600000001
 20
178.82906800000001
 30
0.0
  0
VERTEX
  5
20E
  8
001
 62
     5
 10
350.59204699999998
 20
178.87653399999999
 30
0.0
  0
VERTEX
  5
20F
  8
001
 62
     5
 10
350.44305900000001
 20
179.009794
 30
0.0
  0
VERTEX
  5
210
  8
001
 62
     5
 10
350.26994400000001
 20
179.10429500000001
 30
0.0
  0
VERTEX
  5
211
  8
001
 62
     5
 10
350.13680099999999
 20
179.15089800000001
 30
0.0
  0
VERTEX
  5
212
  8
001
 62
     5
 10
349.982755
 20
179.17820800000001
 30
0.0
  0
VERTEX
  5
213
  8
001
 62
     5
 10
349.89359400000001
 20
179.18529100000001
 30
0.0
  0
VERTEX
  5
214
  8
001
 62
     5
 10
349.82994400000001
 20
179.18766099999999
 30
0.0
  0
SEQEND
  5
1FB
  8
001
  0
POLYLINE
  5
215
  8
001
 62
     5
 66
     1
 10
0.0
 20
0.0
 30
0.0
  0
VERTEX
  5
217
  8
001
 62
     5
 10
350.82994400000001
 20
179.329082
 30
0.0
  0
VERTEX
  5
218
  8
001
 62
     5
 10
350.82610299999999
 20
179.38104999999999
 30
0.0
  0
VERTEX
  5
219
  8
001
 62
     5
 10
350.814752
 20
179.45187000000001
 30
0.0
  0
VERTEX
  5
21A
  8
001
 62
     5
 10
350.79559999999998
 20
179.51549700000001
 30
0.0
  0
VERTEX
  5
21B
  8
001
 62
     5
 10
350.76963699999999
 20
179.57092700000001
 30
0.0
  0
VERTEX
  5
21C
  8
001
 62
     5
 10
350.73586699999998
 20
179.627791
 30
0.0
  0
VERTEX
  5
21D
  8
001
 62
     5
 10
350.69596999999999
 20
179.682636
 30
0.0
  0
VERTEX
  5
21E
  8
001
 62
     5
 10
350.52666599999998
 20
179.8351219999999
 30
0.0
  0
VERTEX
  5
21F
  8
001
 62
     5
 10
350.32994400000001
 20
179.94145499999999
 30
0.0
  0
VERTEX
  5
220
  8
001
 62
     5
 10
350.17864500000002
 20
179.9942419999999
 30
0.0
  0
VERTEX
  5
221
  8
001
 62
     5
 10
350.00359200000003
 20
180.02544700000001
 30
0.0
  0
VERTEX
  5
222
  8
001
 62
     5
 10
349.90227299999998
 20
180.03350800000001
 30
0.0
  0
VERTEX
  5
223
  8
001
 62
     5
 10
349.82994400000001
 20
180.03618899999989
 30
0.0
  0
SEQEND
  5
216
  8
001
  0
POLYLINE
  5
224
  8
001
 62
     5
 66
     1
 10
0.0
 20
0.0
 30
0.0
  0
VERTEX
  5
226
  8
001
 62
     5
 10
349.82994400000001
 20
177.943153
 30
0.0
  0
VERTEX
  5
227
  8
001
 62
     5
 10
349.90227299999998
 20
177.94583399999999
 30
0.0
  0
VERTEX
  5
228
  8
001
 62
     5
 10
350.00359200000003
 20
177.95389599999999
 30
0.0
  0
VERTEX
  5
229
  8
001
 62
     5
 10
350.17864500000002
 20
177.98509999999999
 30
0.0
  0
VERTEX
  5
22A
  8
001
 62
     5
 10
350.32994400000001
 20
178.03788700000001
 30
0.0
  0
VERTEX
  5
22B
  8
001
 62
     5
 10
350.52666599999998
 20
178.1442209999999
 30
0.0
  0
VERTEX
  5
22C
  8
001
 62
     5
 10
350.69596999999999
 20
178.296707
 30
0.0
  0
VERTEX
  5
22D
  8
001
 62
     5
 10
350.73586699999998
 20
178.351552
 30
0.0
  0
VERTEX
  5
22E
  8
001
 62
     5
 10
350.76963699999999
 20
178.40841499999999
 30
0.0
  0
VERTEX
  5
22F
  8
001
 62
     5
 10
350.79559999999998
 20
178.46384599999999
 30
0.0
  0
VERTEX
  5
230
  8
001
 62
     5
 10
350.814752
 20
178.52747199999999
 30
0.0
  0
VERTEX
  5
231
  8
001
 62
     5
 10
350.82610299999999
 20
178.59829300000001
 30
0.0
  0
VERTEX
  5
232
  8
001
 62
     5
 10
350.82994400000001
 20
178.65026
 30
0.0
  0
SEQEND
  5
225
  8
001
  0
POLYLINE
  5
233
  8
001
 62
     5
 66
     1
 10
0.0
 20
0.0
 30
0.0
  0
VERTEX
  5
235
  8
001
 62
     5
 10
350.82994400000001
 20
178.65026
 30
0.0
  0
VERTEX
  5
236
  8
001
 62
     5
 10
350.82610299999999
 20
178.70222699999999
 30
0.0
  0
VERTEX
  5
237
  8
001
 62
     5
 10
350.814752
 20
178.77304799999999
 30
0.0
  0
VERTEX
  5
238
  8
001
 62
     5
 10
350.79559999999998
 20
178.83667399999999
 30
0.0
  0
VERTEX
  5
239
  8
001
 62
     5
 10
350.76963699999999
 20
178.89210499999999
 30
0.0
  0
VERTEX
  5
23A
  8
001
 62
     5
 10
350.73586699999998
 20
178.94896799999989
 30
0.0
  0
VERTEX
  5
23B
  8
001
 62
     5
 10
350.69596999999999
 20
179.00381300000001
 30
0.0
  0
VERTEX
  5
23C
  8
001
 62
     5
 10
350.52666599999998
 20
179.15629899999999
 30
0.0
  0
VERTEX
  5
23D
  8
001
 62
     5
 10
350.32994400000001
 20
179.262632
 30
0.0
  0
VERTEX
  5
23E
  8
001
 62
     5
 10
350.17864500000002
 20
179.31541899999999
 30
0.0
  0
VERTEX
  5
23F
  8
001
 62
     5
 10
350.00359200000003
 20
179.34662399999999
 30
0.0
  0
VERTEX
  5
240
  8
001
 62
     5
 10
349.90227299999998
 20
179.35468599999999
 30
0.0
  0
VERTEX
  5
241
  8
001
 62
     5
 10
349.82994400000001
 20
179.3573669999999
 30
0.0
  0
SEQEND
  5
234
  8
001
  0
LINE
  5
242
  8
001
 62
     5
 10
350.82994400000001
 20
178.65026
 30
0.0
 11
350.82994400000001
 21
179.329082
 31
0.0
  0
LINE
  5
243
  8
001
 62
     5
 10
349.82994400000001
 20
178.21512999999999
 30
0.0
 11
350.11594400000001
 21
178.21512999999999
 31
0.0
  0
LINE
  5
244
  8
001
 62
     5
 10
350.11594400000001
 20
178.21512999999999
 30
0.0
 11
350.40194400000001
 21
178.56540699999999
 31
0.0
  0
LINE
  5
245
  8
001
 62
     5
 10
350.40194400000001
 20
178.56540699999999
 30
0.0
 11
350.11594400000001
 21
178.915684
 31
0.0
  0
LINE
  5
246
  8
001
 62
     5
 10
350.11594400000001
 20
178.915684
 30
0.0
 11
349.82994400000001
 21
178.915684
 31
0.0
  0
LINE
  5
247
  8
001
 62
     5
 10
350.11594400000001
 20
178.21512999999999
 30
0.0
 11
350.11594400000001
 21
178.63939400000001
 31
0.0
  0
LINE
  5
248
  8
001
 62
     5
 10
350.11594400000001
 20
178.63939400000001
 30
0.0
 11
350.22873900000002
 21
178.77753899999999
 31
0.0
  0
LINE
  5
249
  8
001
 62
     5
 10
349.82994400000001
 20
178.63939400000001
 30
0.0
 11
350.11594400000001
 21
178.63939400000001
 31
0.0
  0
ENDBLK
  5
1F9
  8
0
  0
BLOCK
  8
0
  2
JZB-22
 70
     0
 10
0.0
 20
0.0
 30
0.0
  3
JZB-22
  1

  0
CIRCLE
  5
24D
  8
001
 62
     5
 10
345.82994400000001
 20
123.91377799999999
 30
0.0
 40
0.9999999999999996
  0
CIRCLE
  5
24E
  8
001
 62
     5
 10
345.82994400000001
 20
123.91377799999999
 30
0.0
 40
0.8799999999999972
  0
LINE
  5
24F
  8
001
 62
     5
 10
345.25794400000001
 20
123.91377799999999
 30
0.0
 11
345.54394400000001
 21
123.41841100000001
 31
0.0
  0
LINE
  5
250
  8
001
 62
     5
 10
346.40194400000001
 20
123.91377799999999
 30
0.0
 11
346.11594400000001
 21
124.409144
 31
0.0
  0
LINE
  5
251
  8
001
 62
     5
 10
346.11594400000001
 20
124.409144
 30
0.0
 11
345.54394400000001
 21
124.409144
 31
0.0
  0
LINE
  5
252
  8
001
 62
     5
 10
345.54394400000001
 20
124.409144
 30
0.0
 11
345.25794400000001
 21
123.91377799999999
 31
0.0
  0
LINE
  5
253
  8
001
 62
     5
 10
345.54394400000001
 20
123.41841100000001
 30
0.0
 11
346.11594400000001
 21
123.41841100000001
 31
0.0
  0
LINE
  5
254
  8
001
 62
     5
 10
346.11594400000001
 20
123.41841100000001
 30
0.0
 11
346.40194400000001
 21
123.91377799999999
 31
0.0
  0
ENDBLK
  5
24C
  8
0
  0
BLOCK
  8
0
  2
JZB-23
 70
     0
 10
0.0
 20
0.0
 30
0.0
  3
JZB-23
  1

  0
CIRCLE
  5
258
  8
001
 62
     5
 10
330.82994400000001
 20
123.91377799999999
 30
0.0
 40
0.9999999999999996
  0
CIRCLE
  5
259
  8
001
 62
     5
 10
330.82994400000001
 20
123.91377799999999
 30
0.0
 40
0.8799999999999972
  0
LINE
  5
25A
  8
001
 62
     5
 10
330.54394400000001
 20
123.41841100000001
 30
0.0
 11
331.11594400000001
 21
123.41841100000001
 31
0.0
  0
LINE
  5
25B
  8
001
 62
     5
 10
331.11594400000001
 20
123.41841100000001
 30
0.0
 11
331.40194400000001
 21
123.91377799999999
 31
0.0
  0
LINE
  5
25C
  8
001
 62
     5
 10
330.25794400000001
 20
123.91377799999999
 30
0.0
 11
330.54394400000001
 21
123.41841100000001
 31
0.0
  0
LINE
  5
25D
  8
001
 62
     5
 10
331.40194400000001
 20
123.91377799999999
 30
0.0
 11
331.11594400000001
 21
124.409144
 31
0.0
  0
LINE
  5
25E
  8
001
 62
     5
 10
331.11594400000001
 20
124.409144
 30
0.0
 11
330.54394400000001
 21
124.409144
 31
0.0
  0
LINE
  5
25F
  8
001
 62
     5
 10
330.54394400000001
 20
124.409144
 30
0.0
 11
330.25794400000001
 21
123.91377799999999
 31
0.0
  0
ENDBLK
  5
257
  8
0
  0
BLOCK
  8
0
  2
JZB-24
 70
     0
 10
0.0
 20
0.0
 30
0.0
  3
JZB-24
  1

  0
ARC
  5
263
  8
001
 62
     1
 10
338.85494399999999
 20
149.56654900000001
 30
0.0
 40
0.15
 50
0.0
 51
90.0
  0
LINE
  5
264
  8
001
 62
     1
 10
339.00494400000002
 20
149.17223000000001
 30
0.0
 11
339.00494400000002
 21
149.56654900000001
 31
0.0
  0
ARC
  5
265
  8
001
 62
     1
 10
337.80494399999998
 20
149.56654900000001
 30
0.0
 40
0.15
 50
90.0
 51
180.0
  0
LINE
  5
266
  8
001
 62
     1
 10
338.25494400000002
 20
149.71654899999999
 30
0.0
 11
337.80494399999998
 21
149.71654899999999
 31
0.0
  0
LINE
  5
267
  8
001
 62
     1
 10
338.25494400000002
 20
149.18676099999999
 30
0.0
 11
338.25494400000002
 21
149.71654899999999
 31
0.0
  0
LINE
  5
268
  8
001
 62
     1
 10
338.404944
 20
149.71654899999999
 30
0.0
 11
338.404944
 21
149.18676099999999
 31
0.0
  0
CIRCLE
  5
269
  8
001
 62
     1
 10
338.70494400000001
 20
149.416549
 30
0.0
 40
0.12
  0
ARC
  5
26A
  8
001
 62
     1
 10
337.35494399999999
 20
149.17223000000001
 30
0.0
 40
0.3
 50
312.11060700000002
 51
0.0
  0
CIRCLE
  5
26B
  8
001
 62
     1
 10
337.95494400000001
 20
149.416549
 30
0.0
 40
0.12
  0
LINE
  5
26C
  8
001
 62
     1
 10
338.85494399999999
 20
149.71654899999999
 30
0.0
 11
338.404944
 21
149.71654899999999
 31
0.0
  0
ARC
  5
26D
  8
001
 62
     1
 10
338.32994400000001
 20
148.09357800000001
 30
0.0
 40
1.153999999999997
 50
132.11060699999999
 51
47.889392999999998
  0
ARC
  5
26E
  8
001
 62
     1
 10
339.30494399999998
 20
149.17223000000001
 30
0.0
 40
0.3000000000000002
 50
180.0
 51
227.88939300000001
  0
LINE
  5
26F
  8
001
 62
     1
 10
337.654944
 20
149.56654900000001
 30
0.0
 11
337.654944
 21
149.17223000000001
 31
0.0
  0
ENDBLK
  5
262
  8
0
  0
BLOCK
  8
0
  2
V-25
 70
     0
 10
0.0
 20
0.0
 30
0.0
  3
V-25
  1

  0
LINE
  5
273
  8
001
 62
   140
 10
350.12994400000002
 20
169.41377800000001
 30
0.0
 11
349.82994400000001
 21
169.41377800000001
 31
0.0
  0
LINE
  5
274
  8
001
 62
   140
 10
350.12994400000002
 20
168.21377799999999
 30
0.0
 11
350.12994400000002
 21
169.41377800000001
 31
0.0
  0
ENDBLK
  5
272
  8
0
  0
BLOCK
  8
0
  2
V-26
 70
     0
 10
0.0
 20
0.0
 30
0.0
  3
V-26
  1

  0
LINE
  5
278
  8
001
 62
   140
 10
326.82994400000001
 20
169.41377800000001
 30
0.0
 11
326.529944
 21
169.41377800000001
 31
0.0
  0
LINE
  5
279
  8
001
 62
   140
 10
326.529944
 20
169.41377800000001
 30
0.0
 11
326.529944
 21
168.21377799999999
 31
0.0
  0
ENDBLK
  5
277
  8
0
  0
BLOCK
  8
0
  2
JZB-27
 70
     0
 10
0.0
 20
0.0
 30
0.0
  3
JZB-27
  1

  0
LINE
  5
27D
  8
001
 10
360.32994400000001
 20
149.013778
 30
0.0
 11
359.92994399999998
 21
149.013778
 31
0.0
  0
LINE
  5
27E
  8
001
 10
360.32994400000001
 20
133.013778
 30
0.0
 11
359.92994399999998
 21
133.013778
 31
0.0
  0
LINE
  5
27F
  8
001
 10
360.32994400000001
 20
132.21377799999999
 30
0.0
 11
359.92994399999998
 21
132.21377799999999
 31
0.0
  0
LINE
  5
280
  8
001
 10
360.32994400000001
 20
149.81377800000001
 30
0.0
 11
359.92994399999998
 21
149.81377800000001
 31
0.0
  0
LINE
  5
281
  8
001
 10
360.32994400000001
 20
149.81377800000001
 30
0.0
 11
360.32994400000001
 21
132.21377799999999
 31
0.0
  0
LINE
  5
282
  8
001
 10
360.32994400000001
 20
132.46377799999999
 30
0.0
 11
360.499394
 21
132.47860299999999
 31
0.0
  0
LINE
  5
283
  8
001
 10
360.499394
 20
133.54895300000001
 30
0.0
 11
360.32994400000001
 21
133.56377800000001
 31
0.0
  0
LINE
  5
284
  8
001
 10
360.32994400000001
 20
148.46377799999999
 30
0.0
 11
360.499394
 21
148.47860299999999
 31
0.0
  0
LINE
  5
285
  8
001
 10
360.499394
 20
149.54895300000001
 30
0.0
 11
360.32994400000001
 21
149.56377800000001
 31
0.0
  0
ARC
  5
286
  8
001
 10
360.48196300000001
 20
148.677842
 30
0.0
 40
0.2000000000000001
 50
275.0
 51
343.74297200000012
  0
ARC
  5
287
  8
001
 10
360.48196300000001
 20
149.34971400000001
 30
0.0
 40
0.2000000000000001
 50
16.257027999999998
 51
85.0
  0
ARC
  5
288
  8
001
 10
360.48196300000001
 20
132.677842
 30
0.0
 40
0.2000000000000001
 50
275.0
 51
343.74297200000012
  0
ARC
  5
289
  8
001
 10
360.48196300000001
 20
133.34971399999989
 30
0.0
 40
0.2000000000000001
 50
16.257027999999998
 51
85.0
  0
POLYLINE
  5
28A
  8
001
 66
     1
 10
0.0
 20
0.0
 30
0.0
  0
VERTEX
  5
28C
  8
001
 10
360.68095
 20
132.65377000000001
 30
0.0
  0
VERTEX
  5
28D
  8
001
 10
360.68150900000001
 20
132.65380300000001
 30
0.0
  0
VERTEX
  5
28E
  8
001
 10
360.68238700000001
 20
132.653774
 30
0.0
  0
VERTEX
  5
28F
  8
001
 10
360.682703
 20
132.65373700000001
 30
0.0
  0
VERTEX
  5
290
  8
001
 10
360.68286699999999
 20
132.65377799999999
 30
0.0
  0
SEQEND
  5
28B
  8
001
  0
ARC
  5
291
  8
001
 10
359.32994400000001
 20
133.013778
 30
0.0
 40
1.399999999999999
 50
14.900596999999999
 51
16.257027999999998
  0
ARC
  5
292
  8
001
 10
359.32994400000001
 20
133.013778
 30
0.0
 40
1.399999999999999
 50
343.74297200000012
 51
345.099403
  0
POLYLINE
  5
293
  8
001
 66
     1
 10
0.0
 20
0.0
 30
0.0
  0
VERTEX
  5
295
  8
001
 10
360.72623599999997
 20
132.94178500000001
 30
0.0
  0
VERTEX
  5
296
  8
001
 10
360.71836100000002
 20
132.94179500000001
 30
0.0
  0
VERTEX
  5
297
  8
001
 10
360.70685099999997
 20
132.94180299999999
 30
0.0
  0
VERTEX
  5
298
  8
001
 10
360.69147199999998
 20
132.941811
 30
0.0
  0
VERTEX
  5
299
  8
001
 10
360.68095
 20
132.94181499999999
 30
0.0
  0
SEQEND
  5
294
  8
001
  0
POLYLINE
  5
29A
  8
001
 66
     1
 10
0.0
 20
0.0
 30
0.0
  0
VERTEX
  5
29C
  8
001
 10
360.68095
 20
133.37377000000001
 30
0.0
  0
VERTEX
  5
29D
  8
001
 10
360.68149199999999
 20
133.37380300000001
 30
0.0
  0
VERTEX
  5
29E
  8
001
 10
360.682388
 20
133.373774
 30
0.0
  0
VERTEX
  5
29F
  8
001
 10
360.68272400000001
 20
133.37373700000001
 30
0.0
  0
VERTEX
  5
2A0
  8
001
 10
360.68286699999999
 20
133.37377799999999
 30
0.0
  0
SEQEND
  5
29B
  8
001
  0
ARC
  5
2A1
  8
001
 10
359.32994400000001
 20
133.01376999999999
 30
0.0
 40
1.398147345597023
 50
2.951849999999999
 51
14.9208
  0
POLYLINE
  5
2A2
  8
001
 66
     1
 10
0.0
 20
0.0
 30
0.0
  0
VERTEX
  5
2A4
  8
001
 10
360.68095
 20
133.08574100000001
 30
0.0
  0
VERTEX
  5
2A5
  8
001
 10
360.69147199999998
 20
133.085745
 30
0.0
  0
VERTEX
  5
2A6
  8
001
 10
360.70685099999997
 20
133.08575300000001
 30
0.0
  0
VERTEX
  5
2A7
  8
001
 10
360.71836100000002
 20
133.08576099999999
 30
0.0
  0
VERTEX
  5
2A8
  8
001
 10
360.72623599999997
 20
133.08577
 30
0.0
  0
SEQEND
  5
2A3
  8
001
  0
ARC
  5
2A9
  8
001
 10
359.32994400000001
 20
133.01374100000001
 30
0.0
 40
1.3529227620230171
 50
356.94938500000001
 51
3.0506150000000001
  0
POLYLINE
  5
2AA
  8
001
 66
     1
 10
0.0
 20
0.0
 30
0.0
  0
VERTEX
  5
2AC
  8
001
 10
360.68095
 20
132.94174100000001
 30
0.0
  0
VERTEX
  5
2AD
  8
001
 10
360.69147199999998
 20
132.941745
 30
0.0
  0
VERTEX
  5
2AE
  8
001
 10
360.70685099999997
 20
132.94175300000001
 30
0.0
  0
VERTEX
  5
2AF
  8
001
 10
360.71836100000002
 20
132.94176100000001
 30
0.0
  0
VERTEX
  5
2B0
  8
001
 10
360.72623599999997
 20
132.94176999999999
 30
0.0
  0
SEQEND
  5
2AB
  8
001
  0
ARC
  5
2B1
  8
001
 10
359.32994400000001
 20
133.01376999999999
 30
0.0
 40
1.398147345597023
 50
345.07920000000001
 51
357.04815000000002
  0
POLYLINE
  5
2B2
  8
001
 66
     1
 10
0.0
 20
0.0
 30
0.0
  0
VERTEX
  5
2B4
  8
001
 10
360.68286699999999
 20
132.65377799999999
 30
0.0
  0
VERTEX
  5
2B5
  8
001
 10
360.68272400000001
 20
132.653819
 30
0.0
  0
VERTEX
  5
2B6
  8
001
 10
360.682388
 20
132.65378200000001
 30
0.0
  0
VERTEX
  5
2B7
  8
001
 10
360.68149199999999
 20
132.653752
 30
0.0
  0
VERTEX
  5
2B8
  8
001
 10
360.68095
 20
132.653785
 30
0.0
  0
SEQEND
  5
2B3
  8
001
  0
POLYLINE
  5
2B9
  8
001
 66
     1
 10
0.0
 20
0.0
 30
0.0
  0
VERTEX
  5
2BB
  8
001
 10
360.68095
 20
148.65377000000001
 30
0.0
  0
VERTEX
  5
2BC
  8
001
 10
360.68150900000001
 20
148.65380300000001
 30
0.0
  0
VERTEX
  5
2BD
  8
001
 10
360.68238700000001
 20
148.653774
 30
0.0
  0
VERTEX
  5
2BE
  8
001
 10
360.682703
 20
148.65373700000001
 30
0.0
  0
VERTEX
  5
2BF
  8
001
 10
360.68286699999999
 20
148.65377799999999
 30
0.0
  0
SEQEND
  5
2BA
  8
001
  0
ARC
  5
2C0
  8
001
 10
359.32994400000001
 20
149.013778
 30
0.0
 40
1.399999999999999
 50
14.900596999999999
 51
16.257027999999998
  0
ARC
  5
2C1
  8
001
 10
359.32994400000001
 20
149.013778
 30
0.0
 40
1.399999999999999
 50
343.74297200000012
 51
345.099403
  0
POLYLINE
  5
2C2
  8
001
 66
     1
 10
0.0
 20
0.0
 30
0.0
  0
VERTEX
  5
2C4
  8
001
 10
360.72623599999997
 20
148.94178500000001
 30
0.0
  0
VERTEX
  5
2C5
  8
001
 10
360.71836100000002
 20
148.9417949999999
 30
0.0
  0
VERTEX
  5
2C6
  8
001
 10
360.70685099999997
 20
148.94180299999999
 30
0.0
  0
VERTEX
  5
2C7
  8
001
 10
360.69147199999998
 20
148.941811
 30
0.0
  0
VERTEX
  5
2C8
  8
001
 10
360.68095
 20
148.94181499999999
 30
0.0
  0
SEQEND
  5
2C3
  8
001
  0
POLYLINE
  5
2C9
  8
001
 66
     1
 10
0.0
 20
0.0
 30
0.0
  0
VERTEX
  5
2CB
  8
001
 10
360.68095
 20
149.37377000000001
 30
0.0
  0
VERTEX
  5
2CC
  8
001
 10
360.68149199999999
 20
149.37380300000001
 30
0.0
  0
VERTEX
  5
2CD
  8
001
 10
360.682388
 20
149.373774
 30
0.0
  0
VERTEX
  5
2CE
  8
001
 10
360.68272400000001
 20
149.37373700000001
 30
0.0
  0
VERTEX
  5
2CF
  8
001
 10
360.68286699999999
 20
149.37377799999999
 30
0.0
  0
SEQEND
  5
2CA
  8
001
  0
ARC
  5
2D0
  8
001
 10
359.32994400000001
 20
149.01376999999999
 30
0.0
 40
1.398147345597023
 50
2.951849999999999
 51
14.9208
  0
POLYLINE
  5
2D1
  8
001
 66
     1
 10
0.0
 20
0.0
 30
0.0
  0
VERTEX
  5
2D3
  8
001
 10
360.68095
 20
149.08574100000001
 30
0.0
  0
VERTEX
  5
2D4
  8
001
 10
360.69147199999998
 20
149.085745
 30
0.0
  0
VERTEX
  5
2D5
  8
001
 10
360.70685099999997
 20
149.08575300000001
 30
0.0
  0
VERTEX
  5
2D6
  8
001
 10
360.71836100000002
 20
149.08576099999999
 30
0.0
  0
VERTEX
  5
2D7
  8
001
 10
360.72623599999997
 20
149.08577
 30
0.0
  0
SEQEND
  5
2D2
  8
001
  0
ARC
  5
2D8
  8
001
 10
359.32994400000001
 20
149.0137409999999
 30
0.0
 40
1.3529227620230171
 50
356.94938500000001
 51
3.0506150000000001
  0
POLYLINE
  5
2D9
  8
001
 66
     1
 10
0.0
 20
0.0
 30
0.0
  0
VERTEX
  5
2DB
  8
001
 10
360.68095
 20
148.94174099999989
 30
0.0
  0
VERTEX
  5
2DC
  8
001
 10
360.69147199999998
 20
148.941745
 30
0.0
  0
VERTEX
  5
2DD
  8
001
 10
360.70685099999997
 20
148.94175300000001
 30
0.0
  0
VERTEX
  5
2DE
  8
001
 10
360.71836100000002
 20
148.94176100000001
 30
0.0
  0
VERTEX
  5
2DF
  8
001
 10
360.72623599999997
 20
148.94176999999999
 30
0.0
  0
SEQEND
  5
2DA
  8
001
  0
ARC
  5
2E0
  8
001
 10
359.32994400000001
 20
149.01376999999999
 30
0.0
 40
1.398147345597023
 50
345.07920000000001
 51
357.04815000000002
  0
POLYLINE
  5
2E1
  8
001
 66
     1
 10
0.0
 20
0.0
 30
0.0
  0
VERTEX
  5
2E3
  8
001
 10
360.68286699999999
 20
148.65377799999999
 30
0.0
  0
VERTEX
  5
2E4
  8
001
 10
360.68272400000001
 20
148.653819
 30
0.0
  0
VERTEX
  5
2E5
  8
001
 10
360.682388
 20
148.65378200000001
 30
0.0
  0
VERTEX
  5
2E6
  8
001
 10
360.68149199999999
 20
148.653752
 30
0.0
  0
VERTEX
  5
2E7
  8
001
 10
360.68095
 20
148.653785
 30
0.0
  0
SEQEND
  5
2E2
  8
001
  0
LINE
  5
2E8
  8
001
 10
360.72623599999997
 20
132.94176999999999
 30
0.0
 11
360.68095099999999
 21
132.94176999999999
 31
0.0
  0
LINE
  5
2E9
  8
001
 10
360.72623599999997
 20
148.94176999999999
 30
0.0
 11
360.68095099999999
 21
148.94176999999999
 31
0.0
  0
LINE
  5
2EA
  8
001
 10
360.72994399999999
 20
148.013778
 30
0.0
 11
360.32994400000001
 21
148.013778
 31
0.0
  0
LINE
  5
2EB
  8
001
 10
360.72994399999999
 20
148.013778
 30
0.0
 11
360.72994399999999
 21
141.613778
 31
0.0
  0
LINE
  5
2EC
  8
001
 10
360.72994399999999
 20
141.613778
 30
0.0
 11
360.32994400000001
 21
141.613778
 31
0.0
  0
LINE
  5
2ED
  8
001
 10
360.32994400000001
 20
134.09377799999999
 30
0.0
 11
360.82804700000003
 21
134.69377800000001
 31
0.0
  0
LINE
  5
2EE
  8
001
 10
360.82804700000003
 20
137.34906799999999
 30
0.0
 11
360.32994400000001
 21
137.9490679999999
 31
0.0
  0
LINE
  5
2EF
  8
001
 10
360.82804700000003
 20
134.69377800000001
 30
0.0
 11
360.82804700000003
 21
137.34906799999999
 31
0.0
  0
LINE
  5
2F0
  8
001
 10
360.82930599999997
 20
147.47273899999999
 30
0.0
 11
360.72994399999999
 21
147.45364900000001
 31
0.0
  0
LINE
  5
2F1
  8
001
 10
361.77776
 20
142.53636299999999
 30
0.0
 11
361.81046500000002
 21
142.36614299999999
 31
0.0
  0
LINE
  5
2F2
  8
001
 10
361.81046500000002
 20
142.36614299999999
 30
0.0
 11
360.72994399999999
 21
142.158536
 31
0.0
  0
LINE
  5
2F3
  8
001
 10
360.82930599999997
 20
147.47273899999999
 30
0.0
 11
360.862011
 21
147.30251999999999
 31
0.0
  0
LINE
  5
2F4
  8
001
 10
361.77776
 20
142.53636299999999
 30
0.0
 11
360.76994400000001
 21
144.81377800000001
 31
0.0
  0
LINE
  5
2F5
  8
001
 10
360.76994400000001
 20
144.81377800000001
 30
0.0
 11
360.862011
 21
147.30251999999999
 31
0.0
  0
ENDBLK
  5
27C
  8
0
  0
BLOCK
  8
0
  2
JZB-28
 70
     0
 10
0.0
 20
0.0
 30
0.0
  3
JZB-28
  1

  0
CIRCLE
  5
2F9
  8
001
 62
     5
 10
334.32994400000001
 20
178.41380100000001
 30
0.0
 40
1.3
  0
CIRCLE
  5
2FA
  8
001
 62
     5
 10
334.32994400000001
 20
178.41380100000001
 30
0.0
 40
1.139999999999997
  0
LINE
  5
2FB
  8
001
 62
     5
 10
333.73585100000003
 20
178.756801
 30
0.0
 11
333.73585100000003
 21
178.07080099999999
 31
0.0
  0
LINE
  5
2FC
  8
001
 62
     5
 10
333.73585100000003
 20
178.07080099999999
 30
0.0
 11
334.32994400000001
 21
177.727801
 31
0.0
  0
LINE
  5
2FD
  8
001
 62
     5
 10
334.32994400000001
 20
179.09980100000001
 30
0.0
 11
333.73585100000003
 21
178.756801
 31
0.0
  0
LINE
  5
2FE
  8
001
 62
     5
 10
334.32994400000001
 20
177.727801
 30
0.0
 11
334.924038
 21
178.07080099999999
 31
0.0
  0
LINE
  5
2FF
  8
001
 62
     5
 10
334.924038
 20
178.07080099999999
 30
0.0
 11
334.924038
 21
178.756801
 31
0.0
  0
LINE
  5
300
  8
001
 62
     5
 10
334.924038
 20
178.756801
 30
0.0
 11
334.32994400000001
 21
179.09980100000001
 31
0.0
  0
ENDBLK
  5
2F8
  8
0
  0
BLOCK
  8
0
  2
JZB-29
 70
     0
 10
0.0
 20
0.0
 30
0.0
  3
JZB-29
  1

  0
CIRCLE
  5
304
  8
001
 62
     5
 10
342.32994400000001
 20
178.41380100000001
 30
0.0
 40
1.3
  0
CIRCLE
  5
305
  8
001
 62
     5
 10
342.32994400000001
 20
178.41380100000001
 30
0.0
 40
1.139999999999997
  0
LINE
  5
306
  8
001
 62
     5
 10
342.924038
 20
178.07080099999999
 30
0.0
 11
342.924038
 21
178.756801
 31
0.0
  0
LINE
  5
307
  8
001
 62
     5
 10
341.73585100000003
 20
178.07080099999999
 30
0.0
 11
342.32994400000001
 21
177.727801
 31
0.0
  0
LINE
  5
308
  8
001
 62
     5
 10
342.32994400000001
 20
177.727801
 30
0.0
 11
342.924038
 21
178.07080099999999
 31
0.0
  0
LINE
  5
309
  8
001
 62
     5
 10
342.924038
 20
178.756801
 30
0.0
 11
342.32994400000001
 21
179.09980100000001
 31
0.0
  0
LINE
  5
30A
  8
001
 62
     5
 10
341.73585100000003
 20
178.756801
 30
0.0
 11
341.73585100000003
 21
178.07080099999999
 31
0.0
  0
LINE
  5
30B
  8
001
 62
     5
 10
342.32994400000001
 20
179.09980100000001
 30
0.0
 11
341.73585100000003
 21
178.756801
 31
0.0
  0
ENDBLK
  5
303
  8
0
  0
BLOCK
  8
0
  2
JZB-30
 70
     0
 10
0.0
 20
0.0
 30
0.0
  3
JZB-30
  1

  0
CIRCLE
  5
30F
  8
001
 62
     5
 10
334.32994400000001
 20
173.013778
 30
0.0
 40
1.139999999999997
  0
LINE
  5
310
  8
001
 62
     5
 10
334.32994400000001
 20
173.69977800000001
 30
0.0
 11
333.73585100000003
 21
173.35677799999999
 31
0.0
  0
LINE
  5
311
  8
001
 62
     5
 10
333.73585100000003
 20
173.35677799999999
 30
0.0
 11
333.73585100000003
 21
172.67077800000001
 31
0.0
  0
LINE
  5
312
  8
001
 62
     5
 10
334.924038
 20
173.35677799999999
 30
0.0
 11
334.32994400000001
 21
173.69977800000001
 31
0.0
  0
LINE
  5
313
  8
001
 62
     5
 10
334.924038
 20
172.67077800000001
 30
0.0
 11
334.924038
 21
173.35677799999999
 31
0.0
  0
LINE
  5
314
  8
001
 62
     5
 10
334.32994400000001
 20
172.327778
 30
0.0
 11
334.924038
 21
172.67077800000001
 31
0.0
  0
LINE
  5
315
  8
001
 62
     5
 10
333.73585100000003
 20
172.67077800000001
 30
0.0
 11
334.32994400000001
 21
172.327778
 31
0.0
  0
CIRCLE
  5
316
  8
001
 62
     5
 10
334.32994400000001
 20
173.013778
 30
0.0
 40
1.3
  0
ENDBLK
  5
30E
  8
0
  0
BLOCK
  8
0
  2
JZB-31
 70
     0
 10
0.0
 20
0.0
 30
0.0
  3
JZB-31
  1

  0
CIRCLE
  5
31A
  8
001
 62
     5
 10
342.32994400000001
 20
173.013778
 30
0.0
 40
1.3
  0
CIRCLE
  5
31B
  8
001
 62
     5
 10
342.32994400000001
 20
173.013778
 30
0.0
 40
1.139999999999997
  0
LINE
  5
31C
  8
001
 62
     5
 10
342.32994400000001
 20
172.327778
 30
0.0
 11
342.924038
 21
172.67077800000001
 31
0.0
  0
LINE
  5
31D
  8
001
 62
     5
 10
342.32994400000001
 20
173.69977800000001
 30
0.0
 11
341.73585100000003
 21
173.35677799999999
 31
0.0
  0
LINE
  5
31E
  8
001
 62
     5
 10
341.73585100000003
 20
173.35677799999999
 30
0.0
 11
341.73585100000003
 21
172.67077800000001
 31
0.0
  0
LINE
  5
31F
  8
001
 62
     5
 10
341.73585100000003
 20
172.67077800000001
 30
0.0
 11
342.32994400000001
 21
172.327778
 31
0.0
  0
LINE
  5
320
  8
001
 62
     5
 10
342.924038
 20
173.35677799999999
 30
0.0
 11
342.32994400000001
 21
173.69977800000001
 31
0.0
  0
LINE
  5
321
  8
001
 62
     5
 10
342.924038
 20
172.67077800000001
 30
0.0
 11
342.924038
 21
173.35677799999999
 31
0.0
  0
ENDBLK
  5
319
  8
0
  0
BLOCK
  8
0
  2
JZB-32
 70
     0
 10
0.0
 20
0.0
 30
0.0
  3
JZB-32
  1

  0
POLYLINE
  5
325
  8
001
 62
     5
 66
     1
 10
0.0
 20
0.0
 30
0.0
  0
VERTEX
  5
327
  8
001
 62
     5
 10
325.82994400000001
 20
176.57226900000001
 30
0.0
  0
VERTEX
  5
328
  8
001
 62
     5
 10
325.83378499999998
 20
176.52030099999999
 30
0.0
  0
VERTEX
  5
329
  8
001
 62
     5
 10
325.84513600000002
 20
176.44948099999999
 30
0.0
  0
VERTEX
  5
32A
  8
001
 62
     5
 10
325.86428899999999
 20
176.38585399999999
 30
0.0
  0
VERTEX
  5
32B
  8
001
 62
     5
 10
325.89025199999998
 20
176.33042399999999
 30
0.0
  0
VERTEX
  5
32C
  8
001
 62
     5
 10
325.92402200000009
 20
176.27356
 30
0.0
  0
VERTEX
  5
32D
  8
001
 62
     5
 10
325.96391899999998
 20
176.218715
 30
0.0
  0
VERTEX
  5
32E
  8
001
 62
     5
 10
326.13322299999999
 20
176.06622899999999
 30
0.0
  0
VERTEX
  5
32F
  8
001
 62
     5
 10
326.32994400000001
 20
175.95989599999999
 30
0.0
  0
VERTEX
  5
330
  8
001
 62
     5
 10
326.481244
 20
175.90710899999999
 30
0.0
  0
VERTEX
  5
331
  8
001
 62
     5
 10
326.656296
 20
175.87590399999999
 30
0.0
  0
VERTEX
  5
332
  8
001
 62
     5
 10
326.75761499999999
 20
175.86784299999999
 30
0.0
  0
VERTEX
  5
333
  8
001
 62
     5
 10
326.82994400000001
 20
175.865162
 30
0.0
  0
SEQEND
  5
326
  8
001
  0
POLYLINE
  5
334
  8
001
 62
     5
 66
     1
 10
0.0
 20
0.0
 30
0.0
  0
VERTEX
  5
336
  8
001
 62
     5
 10
326.82994400000001
 20
177.10966999999999
 30
0.0
  0
VERTEX
  5
337
  8
001
 62
     5
 10
326.76629500000001
 20
177.10729900000001
 30
0.0
  0
VERTEX
  5
338
  8
001
 62
     5
 10
326.67713400000002
 20
177.10021599999999
 30
0.0
  0
VERTEX
  5
339
  8
001
 62
     5
 10
326.52308799999997
 20
177.07290599999999
 30
0.0
  0
VERTEX
  5
33A
  8
001
 62
     5
 10
326.38994400000001
 20
177.02630400000001
 30
0.0
  0
VERTEX
  5
33B
  8
001
 62
     5
 10
326.21682900000002
 20
176.931803
 30
0.0
  0
VERTEX
  5
33C
  8
001
 62
     5
 10
326.06784199999998
 20
176.798543
 30
0.0
  0
VERTEX
  5
33D
  8
001
 62
     5
 10
326.03273200000001
 20
176.75107700000001
 30
0.0
  0
VERTEX
  5
33E
  8
001
 62
     5
 10
326.003015
 20
176.70023900000001
 30
0.0
  0
VERTEX
  5
33F
  8
001
 62
     5
 10
325.98016699999999
 20
176.64899800000001
 30
0.0
  0
VERTEX
  5
340
  8
001
 62
     5
 10
325.96331300000003
 20
176.59546900000001
 30
0.0
  0
VERTEX
  5
341
  8
001
 62
     5
 10
325.95332400000001
 20
176.54184799999999
 30
0.0
  0
VERTEX
  5
342
  8
001
 62
     5
 10
325.94994400000002
 20
176.487416
 30
0.0
  0
VERTEX
  5
343
  8
001
 62
     5
 10
325.95332400000001
 20
176.432984
 30
0.0
  0
VERTEX
  5
344
  8
001
 62
     5
 10
325.96331300000003
 20
176.37936300000001
 30
0.0
  0
VERTEX
  5
345
  8
001
 62
     5
 10
325.98016699999999
 20
176.32583299999999
 30
0.0
  0
VERTEX
  5
346
  8
001
 62
     5
 10
326.003015
 20
176.27459200000001
 30
0.0
  0
VERTEX
  5
347
  8
001
 62
     5
 10
326.03273200000001
 20
176.22375500000001
 30
0.0
  0
VERTEX
  5
348
  8
001
 62
     5
 10
326.06784199999998
 20
176.176289
 30
0.0
  0
VERTEX
  5
349
  8
001
 62
     5
 10
326.21682900000002
 20
176.04302899999999
 30
0.0
  0
VERTEX
  5
34A
  8
001
 62
     5
 10
326.38994400000001
 20
175.94852800000001
 30
0.0
  0
VERTEX
  5
34B
  8
001
 62
     5
 10
326.52308799999997
 20
175.90192500000001
 30
0.0
  0
VERTEX
  5
34C
  8
001
 62
     5
 10
326.67713400000002
 20
175.87461500000001
 30
0.0
  0
VERTEX
  5
34D
  8
001
 62
     5
 10
326.76629500000001
 20
175.86753200000001
 30
0.0
  0
VERTEX
  5
34E
  8
001
 62
     5
 10
326.82994400000001
 20
175.865162
 30
0.0
  0
SEQEND
  5
335
  8
001
  0
POLYLINE
  5
34F
  8
001
 62
     5
 66
     1
 10
0.0
 20
0.0
 30
0.0
  0
VERTEX
  5
351
  8
001
 62
     5
 10
326.68446800000009
 20
177.95067599999999
 30
0.0
  0
VERTEX
  5
352
  8
001
 62
     5
 10
326.67295899999999
 20
177.94940600000001
 30
0.0
  0
VERTEX
  5
353
  8
001
 62
     5
 10
326.656296
 20
177.94745499999999
 30
0.0
  0
VERTEX
  5
354
  8
001
 62
     5
 10
326.478093
 20
177.91493600000001
 30
0.0
  0
VERTEX
  5
355
  8
001
 62
     5
 10
326.32994400000001
 20
177.86346399999999
 30
0.0
  0
VERTEX
  5
356
  8
001
 62
     5
 10
326.13429500000001
 20
177.757578
 30
0.0
  0
VERTEX
  5
357
  8
001
 62
     5
 10
325.96391899999998
 20
177.604645
 30
0.0
  0
VERTEX
  5
358
  8
001
 62
     5
 10
325.92397599999998
 20
177.54978
 30
0.0
  0
VERTEX
  5
359
  8
001
 62
     5
 10
325.89025199999998
 20
177.49293599999999
 30
0.0
  0
VERTEX
  5
35A
  8
001
 62
     5
 10
325.86430000000001
 20
177.43751
 30
0.0
  0
VERTEX
  5
35B
  8
001
 62
     5
 10
325.84513600000002
 20
177.37387899999999
 30
0.0
  0
VERTEX
  5
35C
  8
001
 62
     5
 10
325.83378299999998
 20
177.30305799999999
 30
0.0
  0
VERTEX
  5
35D
  8
001
 62
     5
 10
325.82994400000001
 20
177.251091
 30
0.0
  0
SEQEND
  5
350
  8
001
  0
POLYLINE
  5
35E
  8
001
 62
     5
 66
     1
 10
0.0
 20
0.0
 30
0.0
  0
VERTEX
  5
360
  8
001
 62
     5
 10
326.82994400000001
 20
177.27937499999999
 30
0.0
  0
VERTEX
  5
361
  8
001
 62
     5
 10
326.75761499999999
 20
177.27669399999999
 30
0.0
  0
VERTEX
  5
362
  8
001
 62
     5
 10
326.656296
 20
177.26863299999999
 30
0.0
  0
VERTEX
  5
363
  8
001
 62
     5
 10
326.481244
 20
177.23742799999999
 30
0.0
  0
VERTEX
  5
364
  8
001
 62
     5
 10
326.32994400000001
 20
177.184641
 30
0.0
  0
VERTEX
  5
365
  8
001
 62
     5
 10
326.13322299999999
 20
177.07830799999999
 30
0.0
  0
VERTEX
  5
366
  8
001
 62
     5
 10
325.96391899999998
 20
176.92582200000001
 30
0.0
  0
VERTEX
  5
367
  8
001
 62
     5
 10
325.92402200000009
 20
176.87097700000001
 30
0.0
  0
VERTEX
  5
368
  8
001
 62
     5
 10
325.89025199999998
 20
176.81411299999999
 30
0.0
  0
VERTEX
  5
369
  8
001
 62
     5
 10
325.86428899999999
 20
176.75868299999999
 30
0.0
  0
VERTEX
  5
36A
  8
001
 62
     5
 10
325.84513600000002
 20
176.69505599999999
 30
0.0
  0
VERTEX
  5
36B
  8
001
 62
     5
 10
325.83378499999998
 20
176.624236
 30
0.0
  0
VERTEX
  5
36C
  8
001
 62
     5
 10
325.82994400000001
 20
176.57226900000001
 30
0.0
  0
SEQEND
  5
35F
  8
001
  0
LINE
  5
36D
  8
001
 62
     5
 10
325.82994400000001
 20
177.251091
 30
0.0
 11
325.82994400000001
 21
176.57226900000001
 31
0.0
  0
LINE
  5
36E
  8
001
 62
     5
 10
326.25794400000001
 20
176.487416
 30
0.0
 11
326.54394400000001
 21
176.837693
 31
0.0
  0
LINE
  5
36F
  8
001
 62
     5
 10
326.54394400000001
 20
176.13713899999999
 30
0.0
 11
326.25794400000001
 21
176.487416
 31
0.0
  0
LINE
  5
370
  8
001
 62
     5
 10
326.82994400000001
 20
176.13713899999999
 30
0.0
 11
326.54394400000001
 21
176.13713899999999
 31
0.0
  0
LINE
  5
371
  8
001
 62
     5
 10
326.54394400000001
 20
176.837693
 30
0.0
 11
326.82994400000001
 21
176.837693
 31
0.0
  0
LINE
  5
372
  8
001
 62
     5
 10
326.54394400000001
 20
176.13713899999999
 30
0.0
 11
326.54394400000001
 21
176.56140300000001
 31
0.0
  0
LINE
  5
373
  8
001
 62
     5
 10
326.54394400000001
 20
176.56140300000001
 30
0.0
 11
326.431149
 21
176.69954799999999
 31
0.0
  0
LINE
  5
374
  8
001
 62
     5
 10
326.82994400000001
 20
176.56140300000001
 30
0.0
 11
326.54394400000001
 21
176.56140300000001
 31
0.0
  0
ENDBLK
  5
324
  8
0
  0
BLOCK
  8
0
  2
JZB-33
 70
     0
 10
0.0
 20
0.0
 30
0.0
  3
JZB-33
  1

  0
POLYLINE
  5
378
  8
001
 62
     5
 66
     1
 10
0.0
 20
0.0
 30
0.0
  0
VERTEX
  5
37A
  8
001
 62
     5
 10
325.82994400000001
 20
178.65026
 30
0.0
  0
VERTEX
  5
37B
  8
001
 62
     5
 10
325.83378499999998
 20
178.59829300000001
 30
0.0
  0
VERTEX
  5
37C
  8
001
 62
     5
 10
325.84513600000002
 20
178.52747199999999
 30
0.0
  0
VERTEX
  5
37D
  8
001
 62
     5
 10
325.86428899999999
 20
178.46384599999999
 30
0.0
  0
VERTEX
  5
37E
  8
001
 62
     5
 10
325.89025199999998
 20
178.40841499999999
 30
0.0
  0
VERTEX
  5
37F
  8
001
 62
     5
 10
325.92402200000009
 20
178.351552
 30
0.0
  0
VERTEX
  5
380
  8
001
 62
     5
 10
325.96391899999998
 20
178.296707
 30
0.0
  0
VERTEX
  5
381
  8
001
 62
     5
 10
326.13322299999999
 20
178.1442209999999
 30
0.0
  0
VERTEX
  5
382
  8
001
 62
     5
 10
326.32994400000001
 20
178.03788700000001
 30
0.0
  0
VERTEX
  5
383
  8
001
 62
     5
 10
326.481244
 20
177.98509999999999
 30
0.0
  0
VERTEX
  5
384
  8
001
 62
     5
 10
326.656296
 20
177.95389599999999
 30
0.0
  0
VERTEX
  5
385
  8
001
 62
     5
 10
326.75761499999999
 20
177.94583399999999
 30
0.0
  0
VERTEX
  5
386
  8
001
 62
     5
 10
326.82994400000001
 20
177.943153
 30
0.0
  0
SEQEND
  5
379
  8
001
  0
POLYLINE
  5
387
  8
001
 62
     5
 66
     1
 10
0.0
 20
0.0
 30
0.0
  0
VERTEX
  5
389
  8
001
 62
     5
 10
326.82994400000001
 20
179.18766099999999
 30
0.0
  0
VERTEX
  5
38A
  8
001
 62
     5
 10
326.76629500000001
 20
179.18529100000001
 30
0.0
  0
VERTEX
  5
38B
  8
001
 62
     5
 10
326.67713400000002
 20
179.17820800000001
 30
0.0
  0
VERTEX
  5
38C
  8
001
 62
     5
 10
326.52308799999997
 20
179.15089800000001
 30
0.0
  0
VERTEX
  5
38D
  8
001
 62
     5
 10
326.38994400000001
 20
179.10429500000001
 30
0.0
  0
VERTEX
  5
38E
  8
001
 62
     5
 10
326.21682900000002
 20
179.009794
 30
0.0
  0
VERTEX
  5
38F
  8
001
 62
     5
 10
326.06784199999998
 20
178.87653399999999
 30
0.0
  0
VERTEX
  5
390
  8
001
 62
     5
 10
326.03273200000001
 20
178.82906800000001
 30
0.0
  0
VERTEX
  5
391
  8
001
 62
     5
 10
326.003015
 20
178.77823000000001
 30
0.0
  0
VERTEX
  5
392
  8
001
 62
     5
 10
325.98016699999999
 20
178.72699
 30
0.0
  0
VERTEX
  5
393
  8
001
 62
     5
 10
325.96331300000003
 20
178.67346000000001
 30
0.0
  0
VERTEX
  5
394
  8
001
 62
     5
 10
325.95332400000001
 20
178.61983900000001
 30
0.0
  0
VERTEX
  5
395
  8
001
 62
     5
 10
325.94994400000002
 20
178.56540699999999
 30
0.0
  0
VERTEX
  5
396
  8
001
 62
     5
 10
325.95332400000001
 20
178.510975
 30
0.0
  0
VERTEX
  5
397
  8
001
 62
     5
 10
325.96331300000003
 20
178.45735400000001
 30
0.0
  0
VERTEX
  5
398
  8
001
 62
     5
 10
325.98016699999999
 20
178.40382500000001
 30
0.0
  0
VERTEX
  5
399
  8
001
 62
     5
 10
326.003015
 20
178.35258400000001
 30
0.0
  0
VERTEX
  5
39A
  8
001
 62
     5
 10
326.03273200000001
 20
178.30174600000001
 30
0.0
  0
VERTEX
  5
39B
  8
001
 62
     5
 10
326.06784199999998
 20
178.25427999999999
 30
0.0
  0
VERTEX
  5
39C
  8
001
 62
     5
 10
326.21682900000002
 20
178.12101999999999
 30
0.0
  0
VERTEX
  5
39D
  8
001
 62
     5
 10
326.38994400000001
 20
178.02651900000001
 30
0.0
  0
VERTEX
  5
39E
  8
001
 62
     5
 10
326.52308799999997
 20
177.979917
 30
0.0
  0
VERTEX
  5
39F
  8
001
 62
     5
 10
326.67713400000002
 20
177.952607
 30
0.0
  0
VERTEX
  5
3A0
  8
001
 62
     5
 10
326.76629500000001
 20
177.94552400000001
 30
0.0
  0
VERTEX
  5
3A1
  8
001
 62
     5
 10
326.82994400000001
 20
177.943153
 30
0.0
  0
SEQEND
  5
388
  8
001
  0
POLYLINE
  5
3A2
  8
001
 62
     5
 66
     1
 10
0.0
 20
0.0
 30
0.0
  0
VERTEX
  5
3A4
  8
001
 62
     5
 10
326.82994400000001
 20
180.03618899999989
 30
0.0
  0
VERTEX
  5
3A5
  8
001
 62
     5
 10
326.75761499999999
 20
180.03350800000001
 30
0.0
  0
VERTEX
  5
3A6
  8
001
 62
     5
 10
326.656296
 20
180.02544700000001
 30
0.0
  0
VERTEX
  5
3A7
  8
001
 62
     5
 10
326.481244
 20
179.9942419999999
 30
0.0
  0
VERTEX
  5
3A8
  8
001
 62
     5
 10
326.32994400000001
 20
179.94145499999999
 30
0.0
  0
VERTEX
  5
3A9
  8
001
 62
     5
 10
326.13322299999999
 20
179.8351219999999
 30
0.0
  0
VERTEX
  5
3AA
  8
001
 62
     5
 10
325.96391899999998
 20
179.682636
 30
0.0
  0
VERTEX
  5
3AB
  8
001
 62
     5
 10
325.92402200000009
 20
179.627791
 30
0.0
  0
VERTEX
  5
3AC
  8
001
 62
     5
 10
325.89025199999998
 20
179.57092700000001
 30
0.0
  0
VERTEX
  5
3AD
  8
001
 62
     5
 10
325.86428899999999
 20
179.51549700000001
 30
0.0
  0
VERTEX
  5
3AE
  8
001
 62
     5
 10
325.84513600000002
 20
179.45187000000001
 30
0.0
  0
VERTEX
  5
3AF
  8
001
 62
     5
 10
325.83378499999998
 20
179.38104999999999
 30
0.0
  0
VERTEX
  5
3B0
  8
001
 62
     5
 10
325.82994400000001
 20
179.329082
 30
0.0
  0
SEQEND
  5
3A3
  8
001
  0
POLYLINE
  5
3B1
  8
001
 62
     5
 66
     1
 10
0.0
 20
0.0
 30
0.0
  0
VERTEX
  5
3B3
  8
001
 62
     5
 10
326.82994400000001
 20
179.3573669999999
 30
0.0
  0
VERTEX
  5
3B4
  8
001
 62
     5
 10
326.75761499999999
 20
179.35468599999999
 30
0.0
  0
VERTEX
  5
3B5
  8
001
 62
     5
 10
326.656296
 20
179.34662399999999
 30
0.0
  0
VERTEX
  5
3B6
  8
001
 62
     5
 10
326.481244
 20
179.31541899999999
 30
0.0
  0
VERTEX
  5
3B7
  8
001
 62
     5
 10
326.32994400000001
 20
179.262632
 30
0.0
  0
VERTEX
  5
3B8
  8
001
 62
     5
 10
326.13322299999999
 20
179.15629899999999
 30
0.0
  0
VERTEX
  5
3B9
  8
001
 62
     5
 10
325.96391899999998
 20
179.00381300000001
 30
0.0
  0
VERTEX
  5
3BA
  8
001
 62
     5
 10
325.92402200000009
 20
178.94896799999989
 30
0.0
  0
VERTEX
  5
3BB
  8
001
 62
     5
 10
325.89025199999998
 20
178.89210499999999
 30
0.0
  0
VERTEX
  5
3BC
  8
001
 62
     5
 10
325.86428899999999
 20
178.83667399999999
 30
0.0
  0
VERTEX
  5
3BD
  8
001
 62
     5
 10
325.84513600000002
 20
178.77304799999999
 30
0.0
  0
VERTEX
  5
3BE
  8
001
 62
     5
 10
325.83378499999998
 20
178.70222699999999
 30
0.0
  0
VERTEX
  5
3BF
  8
001
 62
     5
 10
325.82994400000001
 20
178.65026
 30
0.0
  0
SEQEND
  5
3B2
  8
001
  0
LINE
  5
3C0
  8
001
 62
     5
 10
325.82994400000001
 20
179.329082
 30
0.0
 11
325.82994400000001
 21
178.65026
 31
0.0
  0
LINE
  5
3C1
  8
001
 62
     5
 10
326.25794400000001
 20
178.56540699999999
 30
0.0
 11
326.54394400000001
 21
178.915684
 31
0.0
  0
LINE
  5
3C2
  8
001
 62
     5
 10
326.54394400000001
 20
178.21512999999999
 30
0.0
 11
326.25794400000001
 21
178.56540699999999
 31
0.0
  0
LINE
  5
3C3
  8
001
 62
     5
 10
326.82994400000001
 20
178.21512999999999
 30
0.0
 11
326.54394400000001
 21
178.21512999999999
 31
0.0
  0
LINE
  5
3C4
  8
001
 62
     5
 10
326.54394400000001
 20
178.915684
 30
0.0
 11
326.82994400000001
 21
178.915684
 31
0.0
  0
LINE
  5
3C5
  8
001
 62
     5
 10
326.54394400000001
 20
178.21512999999999
 30
0.0
 11
326.54394400000001
 21
178.63939400000001
 31
0.0
  0
LINE
  5
3C6
  8
001
 62
     5
 10
326.54394400000001
 20
178.63939400000001
 30
0.0
 11
326.431149
 21
178.77753899999999
 31
0.0
  0
LINE
  5
3C7
  8
001
 62
     5
 10
326.82994400000001
 20
178.63939400000001
 30
0.0
 11
326.54394400000001
 21
178.63939400000001
 31
0.0
  0
ENDBLK
  5
377
  8
0
  0
BLOCK
  8
0
  2
JZB-34
 70
     0
 10
0.0
 20
0.0
 30
0.0
  3
JZB-34
  1

  0
LINE
  5
3CB
  8
001
 62
     5
 10
75.793139999999994
 20
177.95819800000001
 30
0.0
 11
77.207354000000009
 21
176.54398399999999
 31
0.0
  0
LINE
  5
3CC
  8
001
 62
     5
 10
77.207354000000009
 20
176.54398399999999
 30
0.0
 11
77.207354000000009
 21
176.62703200000001
 31
0.0
  0
LINE
  5
3CD
  8
001
 62
     5
 10
75.876187000000002
 20
177.95819800000001
 30
0.0
 11
75.793139999999994
 21
177.95819800000001
 31
0.0
  0
LINE
  5
3CE
  8
001
 62
     5
 10
75.114317
 20
177.27937499999999
 30
0.0
 11
76.528531000000001
 21
175.865162
 31
0.0
  0
LINE
  5
3CF
  8
001
 62
     5
 10
75.114317
 20
177.10966999999999
 30
0.0
 11
76.358824999999996
 21
175.865162
 31
0.0
  0
LINE
  5
3D0
  8
001
 62
     5
 10
75.114317
 20
177.27937499999999
 30
0.0
 11
75.114317
 21
177.10966999999999
 31
0.0
  0
LINE
  5
3D1
  8
001
 62
     5
 10
76.358824999999996
 20
175.865162
 30
0.0
 11
76.528531000000001
 21
175.865162
 31
0.0
  0
LINE
  5
3D2
  8
001
 62
     5
 10
75.793139999999994
 20
177.95819800000001
 30
0.0
 11
75.114317
 21
177.27937499999999
 31
0.0
  0
LINE
  5
3D3
  8
001
 62
     5
 10
76.528531000000001
 20
175.865162
 30
0.0
 11
77.207354000000009
 21
176.54398399999999
 31
0.0
  0
ENDBLK
  5
3CA
  8
0
  0
BLOCK
  8
0
  2
JZB-35
 70
     0
 10
0.0
 20
0.0
 30
0.0
  3
JZB-35
  1

  0
LINE
  5
3D7
  8
001
 62
     5
 10
73.628490999999997
 20
180.03618899999989
 30
0.0
 11
75.042704000000001
 21
178.62197599999999
 31
0.0
  0
LINE
  5
3D8
  8
001
 62
     5
 10
75.042704000000001
 20
178.62197599999999
 30
0.0
 11
75.042704000000001
 21
178.79168100000001
 31
0.0
  0
LINE
  5
3D9
  8
001
 62
     5
 10
73.79819599999999
 20
180.03618899999989
 30
0.0
 11
73.628490999999997
 21
180.03618899999989
 31
0.0
  0
LINE
  5
3DA
  8
001
 62
     5
 10
72.949668000000003
 20
179.3573669999999
 30
0.0
 11
74.36388199999999
 21
177.943153
 31
0.0
  0
LINE
  5
3DB
  8
001
 62
     5
 10
73.628490999999997
 20
180.03618899999989
 30
0.0
 11
72.949668000000003
 21
179.3573669999999
 31
0.0
  0
LINE
  5
3DC
  8
001
 62
     5
 10
74.36388199999999
 20
177.943153
 30
0.0
 11
75.042704000000001
 21
178.62197599999999
 31
0.0
  0
LINE
  5
3DD
  8
001
 62
     5
 10
72.949668000000003
 20
179.18766099999999
 30
0.0
 11
74.194175999999999
 21
177.943153
 31
0.0
  0
LINE
  5
3DE
  8
001
 62
     5
 10
72.949668000000003
 20
179.3573669999999
 30
0.0
 11
72.949668000000003
 21
179.18766099999999
 31
0.0
  0
LINE
  5
3DF
  8
001
 62
     5
 10
74.194175999999999
 20
177.943153
 30
0.0
 11
74.36388199999999
 21
177.943153
 31
0.0
  0
ENDBLK
  5
3D6
  8
0
  0
BLOCK
  8
0
  2
JZB-36
 70
     0
 10
0.0
 20
0.0
 30
0.0
  3
JZB-36
  1

  0
LINE
  5
3E3
  8
001
 62
     1
 10
57.418868999999987
 20
146.93957800000001
 30
0.0
 11
57.618868999999997
 21
146.93957800000001
 31
0.0
  0
LINE
  5
3E4
  8
001
 62
     1
 10
57.418868999999987
 20
149.71654899999999
 30
0.0
 11
57.618868999999997
 21
149.71654899999999
 31
0.0
  0
LINE
  5
3E5
  8
001
 62
     1
 10
57.418868999999987
 20
146.93957800000001
 30
0.0
 11
57.418868999999987
 21
149.71654899999999
 31
0.0
  0
ENDBLK
  5
3E2
  8
0
  0
BLOCK
  8
0
  2
V-37
 70
     0
 10
0.0
 20
0.0
 30
0.0
  3
V-37
  1

  0
LINE
  5
3E9
  8
001
 62
   140
 10
73.418869000000001
 20
168.85377800000001
 30
0.0
 11
73.418869000000001
 21
169.41377800000001
 31
0.0
  0
LINE
  5
3EA
  8
001
 62
   140
 10
65.018868999999995
 20
169.41377800000001
 30
0.0
 11
65.018868999999995
 21
168.85377800000001
 31
0.0
  0
LINE
  5
3EB
  8
001
 62
   140
 10
73.418869000000001
 20
169.41377800000001
 30
0.0
 11
65.018868999999995
 21
169.41377800000001
 31
0.0
  0
ENDBLK
  5
3E8
  8
0
  0
BLOCK
  8
0
  2
JZB-38
 70
     0
 10
0.0
 20
0.0
 30
0.0
  3
JZB-38
  1

  0
LINE
  5
3EF
  8
001
 10
67.968868999999998
 20
142.36614299999999
 30
0.0
 11
71.568868999999992
 21
142.36614299999999
 31
0.0
  0
LINE
  5
3F0
  8
001
 10
71.568868999999992
 20
142.158536
 30
0.0
 11
67.968868999999998
 21
142.158536
 31
0.0
  0
LINE
  5
3F1
  8
001
 10
67.968868999999998
 20
142.53636299999999
 30
0.0
 11
71.568868999999992
 21
142.53636299999999
 31
0.0
  0
LINE
  5
3F2
  8
001
 10
71.568868999999992
 20
144.81377800000001
 30
0.0
 11
67.968868999999998
 21
144.81377800000001
 31
0.0
  0
LINE
  5
3F3
  8
001
 10
71.568868999999992
 20
147.30251999999999
 30
0.0
 11
67.968868999999998
 21
147.30251999999999
 31
0.0
  0
LINE
  5
3F4
  8
001
 10
71.568868999999992
 20
147.47273899999999
 30
0.0
 11
67.968868999999998
 21
147.47273899999999
 31
0.0
  0
LINE
  5
3F5
  8
001
 10
67.968868999999998
 20
147.47273899999999
 30
0.0
 11
67.968868999999998
 21
142.158536
 31
0.0
  0
LINE
  5
3F6
  8
001
 10
71.568868999999992
 20
142.158536
 30
0.0
 11
71.568868999999992
 21
147.47273899999999
 31
0.0
  0
CIRCLE
  5
3F7
  8
001
 10
69.767953000000006
 20
136.021423
 30
0.0
 40
1.327645405226201
  0
CIRCLE
  5
3F8
  8
001
 10
69.767953000000006
 20
136.021423
 30
0.0
 40
1.927645405227304
  0
LINE
  5
3F9
  8
001
 10
67.368868999999989
 20
148.013778
 30
0.0
 11
67.368868999999989
 21
141.613778
 31
0.0
  0
LINE
  5
3FA
  8
001
 10
72.168869000000001
 20
141.613778
 30
0.0
 11
72.168869000000001
 21
148.013778
 31
0.0
  0
LINE
  5
3FB
  8
001
 10
67.368868999999989
 20
141.613778
 30
0.0
 11
72.168869000000001
 21
141.613778
 31
0.0
  0
LINE
  5
3FC
  8
001
 10
72.168869000000001
 20
148.013778
 30
0.0
 11
67.368868999999989
 21
148.013778
 31
0.0
  0
LINE
  5
3FD
  8
001
 10
75.128861000000001
 20
149.085815
 30
0.0
 11
75.128876000000005
 21
148.94181499999999
 31
0.0
  0
LINE
  5
3FE
  8
001
 10
74.840861000000004
 20
149.08578499999999
 30
0.0
 11
75.128861000000001
 21
149.085815
 31
0.0
  0
LINE
  5
3FF
  8
001
 10
74.840831000000009
 20
149.373785
 30
0.0
 11
74.840861000000004
 21
149.08578499999999
 31
0.0
  0
LINE
  5
400
  8
001
 10
74.696831000000003
 20
149.37377000000001
 30
0.0
 11
74.840831000000009
 21
149.373785
 31
0.0
  0
LINE
  5
401
  8
001
 10
74.696860999999998
 20
149.08577
 30
0.0
 11
74.696831000000003
 21
149.37377000000001
 31
0.0
  0
LINE
  5
402
  8
001
 10
74.408861000000002
 20
149.08574100000001
 30
0.0
 11
74.696860999999998
 21
149.08577
 31
0.0
  0
LINE
  5
403
  8
001
 10
74.408876000000006
 20
148.94174099999989
 30
0.0
 11
74.408861000000002
 21
149.08574100000001
 31
0.0
  0
LINE
  5
404
  8
001
 10
74.696876000000003
 20
148.94176999999999
 30
0.0
 11
74.408876000000006
 21
148.94174099999989
 31
0.0
  0
LINE
  5
405
  8
001
 10
74.840906000000004
 20
148.653785
 30
0.0
 11
74.696906000000013
 21
148.65377000000001
 31
0.0
  0
LINE
  5
406
  8
001
 10
74.696906000000013
 20
148.65377000000001
 30
0.0
 11
74.696876000000003
 21
148.94176999999999
 31
0.0
  0
LINE
  5
407
  8
001
 10
74.840875999999994
 20
148.94178500000001
 30
0.0
 11
74.840906000000004
 21
148.653785
 31
0.0
  0
LINE
  5
408
  8
001
 10
75.128876000000005
 20
148.94181499999999
 30
0.0
 11
74.840875999999994
 21
148.94178500000001
 31
0.0
  0
LINE
  5
409
  8
001
 10
75.128861000000001
 20
133.085815
 30
0.0
 11
75.128876000000005
 21
132.94181499999999
 31
0.0
  0
LINE
  5
40A
  8
001
 10
74.840861000000004
 20
133.08578499999999
 30
0.0
 11
75.128861000000001
 21
133.085815
 31
0.0
  0
LINE
  5
40B
  8
001
 10
74.696831000000003
 20
133.37377000000001
 30
0.0
 11
74.840831000000009
 21
133.373785
 31
0.0
  0
LINE
  5
40C
  8
001
 10
74.696860999999998
 20
133.08577
 30
0.0
 11
74.696831000000003
 21
133.37377000000001
 31
0.0
  0
LINE
  5
40D
  8
001
 10
74.408861000000002
 20
133.08574100000001
 30
0.0
 11
74.696860999999998
 21
133.08577
 31
0.0
  0
LINE
  5
40E
  8
001
 10
74.408876000000006
 20
132.94174100000001
 30
0.0
 11
74.408861000000002
 21
133.08574100000001
 31
0.0
  0
LINE
  5
40F
  8
001
 10
74.840906000000004
 20
132.653785
 30
0.0
 11
74.696906000000013
 21
132.65377000000001
 31
0.0
  0
LINE
  5
410
  8
001
 10
75.128876000000005
 20
132.94181499999999
 30
0.0
 11
74.840875999999994
 21
132.94178500000001
 31
0.0
  0
LINE
  5
411
  8
001
 10
74.840831000000009
 20
133.373785
 30
0.0
 11
74.840861000000004
 21
133.08578499999999
 31
0.0
  0
LINE
  5
412
  8
001
 10
74.696876000000003
 20
132.94176999999999
 30
0.0
 11
74.408876000000006
 21
132.94174100000001
 31
0.0
  0
LINE
  5
413
  8
001
 10
74.696906000000013
 20
132.65377000000001
 30
0.0
 11
74.696876000000003
 21
132.94176999999999
 31
0.0
  0
LINE
  5
414
  8
001
 10
74.840875999999994
 20
132.94178500000001
 30
0.0
 11
74.840906000000004
 21
132.653785
 31
0.0
  0
LINE
  5
415
  8
001
 10
65.128861000000001
 20
133.085815
 30
0.0
 11
65.128876000000005
 21
132.94181499999999
 31
0.0
  0
LINE
  5
416
  8
001
 10
64.696831000000003
 20
133.37377000000001
 30
0.0
 11
64.840831000000009
 21
133.373785
 31
0.0
  0
LINE
  5
417
  8
001
 10
64.408876000000006
 20
132.94174100000001
 30
0.0
 11
64.408861000000002
 21
133.08574100000001
 31
0.0
  0
LINE
  5
418
  8
001
 10
64.840906000000004
 20
132.653785
 30
0.0
 11
64.696906000000013
 21
132.65377000000001
 31
0.0
  0
LINE
  5
419
  8
001
 10
64.696860999999998
 20
133.08577
 30
0.0
 11
64.696831000000003
 21
133.37377000000001
 31
0.0
  0
LINE
  5
41A
  8
001
 10
64.840861000000004
 20
133.08578499999999
 30
0.0
 11
65.128861000000001
 21
133.085815
 31
0.0
  0
LINE
  5
41B
  8
001
 10
65.128876000000005
 20
132.94181499999999
 30
0.0
 11
64.840875999999994
 21
132.94178500000001
 31
0.0
  0
LINE
  5
41C
  8
001
 10
64.840875999999994
 20
132.94178500000001
 30
0.0
 11
64.840906000000004
 21
132.653785
 31
0.0
  0
LINE
  5
41D
  8
001
 10
64.696906000000013
 20
132.65377000000001
 30
0.0
 11
64.696876000000003
 21
132.94176999999999
 31
0.0
  0
LINE
  5
41E
  8
001
 10
64.840831000000009
 20
133.373785
 30
0.0
 11
64.840861000000004
 21
133.08578499999999
 31
0.0
  0
LINE
  5
41F
  8
001
 10
64.696876000000003
 20
132.94176999999999
 30
0.0
 11
64.408876000000006
 21
132.94174100000001
 31
0.0
  0
LINE
  5
420
  8
001
 10
64.408861000000002
 20
133.08574100000001
 30
0.0
 11
64.696860999999998
 21
133.08577
 31
0.0
  0
LINE
  5
421
  8
001
 10
65.128861000000001
 20
149.085815
 30
0.0
 11
65.128876000000005
 21
148.94181499999999
 31
0.0
  0
LINE
  5
422
  8
001
 10
64.840831000000009
 20
149.373785
 30
0.0
 11
64.840861000000004
 21
149.08578499999999
 31
0.0
  0
LINE
  5
423
  8
001
 10
64.696831000000003
 20
149.37377000000001
 30
0.0
 11
64.840831000000009
 21
149.373785
 31
0.0
  0
LINE
  5
424
  8
001
 10
64.408876000000006
 20
148.94174099999989
 30
0.0
 11
64.408861000000002
 21
149.08574100000001
 31
0.0
  0
LINE
  5
425
  8
001
 10
64.840906000000004
 20
148.653785
 30
0.0
 11
64.696906000000013
 21
148.65377000000001
 31
0.0
  0
LINE
  5
426
  8
001
 10
64.840875999999994
 20
148.94178500000001
 30
0.0
 11
64.840906000000004
 21
148.653785
 31
0.0
  0
LINE
  5
427
  8
001
 10
64.696860999999998
 20
149.08577
 30
0.0
 11
64.696831000000003
 21
149.37377000000001
 31
0.0
  0
LINE
  5
428
  8
001
 10
64.696906000000013
 20
148.65377000000001
 30
0.0
 11
64.696876000000003
 21
148.94176999999999
 31
0.0
  0
LINE
  5
429
  8
001
 10
64.840861000000004
 20
149.08578499999999
 30
0.0
 11
65.128861000000001
 21
149.085815
 31
0.0
  0
LINE
  5
42A
  8
001
 10
65.128876000000005
 20
148.94181499999999
 30
0.0
 11
64.840875999999994
 21
148.94178500000001
 31
0.0
  0
LINE
  5
42B
  8
001
 10
64.696876000000003
 20
148.94176999999999
 30
0.0
 11
64.408876000000006
 21
148.94174099999989
 31
0.0
  0
LINE
  5
42C
  8
001
 10
64.408861000000002
 20
149.08574100000001
 30
0.0
 11
64.696860999999998
 21
149.08577
 31
0.0
  0
CIRCLE
  5
42D
  8
001
 10
64.768868999999995
 20
133.013778
 30
0.0
 40
0.55
  0
CIRCLE
  5
42E
  8
001
 10
74.768868999999995
 20
149.013778
 30
0.0
 40
0.55
  0
CIRCLE
  5
42F
  8
001
 10
74.768868999999995
 20
133.013778
 30
0.0
 40
0.55
  0
CIRCLE
  5
430
  8
001
 10
64.768868999999995
 20
149.013778
 30
0.0
 40
0.55
  0
LINE
  5
431
  8
001
 10
65.368868999999975
 20
148.41377800000001
 30
0.0
 11
65.368868999999975
 21
133.613778
 31
0.0
  0
LINE
  5
432
  8
001
 10
74.168869000000001
 20
148.41377800000001
 30
0.0
 11
65.368868999999975
 21
148.41377800000001
 31
0.0
  0
LINE
  5
433
  8
001
 10
74.168869000000001
 20
133.613778
 30
0.0
 11
74.168869000000001
 21
148.41377800000001
 31
0.0
  0
LINE
  5
434
  8
001
 10
65.368868999999975
 20
133.613778
 30
0.0
 11
74.168869000000001
 21
133.613778
 31
0.0
  0
ARC
  5
435
  8
001
 10
65.681568999999996
 20
147.03547599999999
 30
0.0
 40
0.1603015349506139
 50
359.74926399999998
 51
179.7492639999999
  0
LINE
  5
436
  8
001
 10
65.52126899999999
 20
147.03617800000001
 30
0.0
 11
65.52126899999999
 21
146.35717500000001
 31
0.0
  0
ARC
  5
437
  8
001
 10
65.681567999999999
 20
146.356776
 30
0.0
 40
0.1603002475089454
 50
179.85756499999999
 51
0.0
  0
LINE
  5
438
  8
001
 10
65.841868999999974
 20
146.356776
 30
0.0
 11
65.841868999999974
 21
147.034775
 31
0.0
  0
LINE
  5
439
  8
001
 10
66.260869
 20
147.19977800000001
 30
0.0
 11
66.206265000000002
 21
147.19977800000001
 31
0.0
  0
LINE
  5
43A
  8
001
 10
66.206265000000002
 20
147.19977800000001
 30
0.0
 11
66.202290000000005
 21
146.36521099999999
 31
0.0
  0
LINE
  5
43B
  8
001
 10
66.202290000000005
 20
146.36521099999999
 30
0.0
 11
66.078544999999991
 21
147.19657799999999
 31
0.0
  0
LINE
  5
43C
  8
001
 10
66.078544999999991
 20
147.19657799999999
 30
0.0
 11
66.000468999999995
 21
147.19657799999999
 31
0.0
  0
LINE
  5
43D
  8
001
 10
66.000468999999995
 20
147.19657799999999
 30
0.0
 11
66.000468999999995
 21
146.19737799999999
 31
0.0
  0
LINE
  5
43E
  8
001
 10
66.000468999999995
 20
146.19737799999999
 30
0.0
 11
66.049268999999995
 21
146.19737799999999
 31
0.0
  0
LINE
  5
43F
  8
001
 10
66.049268999999995
 20
146.19737799999999
 30
0.0
 11
66.049268999999995
 21
147.03617800000001
 31
0.0
  0
LINE
  5
440
  8
001
 10
66.049268999999995
 20
147.03617800000001
 30
0.0
 11
66.167868999999996
 21
146.202978
 31
0.0
  0
LINE
  5
441
  8
001
 10
66.167868999999996
 20
146.202978
 30
0.0
 11
66.260869
 21
146.202978
 31
0.0
  0
LINE
  5
442
  8
001
 10
66.260869
 20
146.202978
 30
0.0
 11
66.260869
 21
147.19977800000001
 31
0.0
  0
LINE
  5
443
  8
001
 10
65.900068999999974
 20
142.86917800000001
 30
0.0
 11
66.040068999999988
 21
142.86917800000001
 31
0.0
  0
LINE
  5
444
  8
001
 10
66.040068999999988
 20
142.86917800000001
 30
0.0
 11
66.040068999999988
 21
142.91717800000001
 31
0.0
  0
LINE
  5
445
  8
001
 10
65.900068999999974
 20
142.91717800000001
 30
0.0
 11
65.900068999999974
 21
143.27717799999999
 31
0.0
  0
LINE
  5
446
  8
001
 10
65.900068999999974
 20
143.27717799999999
 30
0.0
 11
66.09746899999999
 21
143.27717799999999
 31
0.0
  0
LINE
  5
447
  8
001
 10
66.09746899999999
 20
143.27717799999999
 30
0.0
 11
66.09746899999999
 21
143.32517799999999
 31
0.0
  0
LINE
  5
448
  8
001
 10
66.09746899999999
 20
143.32517799999999
 30
0.0
 11
65.852069
 21
143.32517799999999
 31
0.0
  0
LINE
  5
449
  8
001
 10
65.852069
 20
143.32517799999999
 30
0.0
 11
65.852069
 21
142.32517799999999
 31
0.0
  0
LINE
  5
44A
  8
001
 10
65.852069
 20
142.32517799999999
 30
0.0
 11
65.900068999999974
 21
142.32517799999999
 31
0.0
  0
LINE
  5
44B
  8
001
 10
66.340069
 20
142.86917800000001
 30
0.0
 11
66.340069
 21
142.91717800000001
 31
0.0
  0
LINE
  5
44C
  8
001
 10
66.340069
 20
142.91717800000001
 30
0.0
 11
66.200068999999985
 21
142.91717800000001
 31
0.0
  0
LINE
  5
44D
  8
001
 10
66.200068999999985
 20
143.27717799999999
 30
0.0
 11
66.400068999999988
 21
143.27717799999999
 31
0.0
  0
LINE
  5
44E
  8
001
 10
66.400068999999988
 20
143.27717799999999
 30
0.0
 11
66.400068999999988
 21
143.32517799999999
 31
0.0
  0
LINE
  5
44F
  8
001
 10
66.400068999999988
 20
143.32517799999999
 30
0.0
 11
66.152068999999997
 21
143.32517799999999
 31
0.0
  0
LINE
  5
450
  8
001
 10
66.152068999999997
 20
143.32517799999999
 30
0.0
 11
66.152068999999997
 21
142.32517799999999
 31
0.0
  0
LINE
  5
451
  8
001
 10
66.152068999999997
 20
142.32517799999999
 30
0.0
 11
66.200068999999985
 21
142.32517799999999
 31
0.0
  0
ARC
  5
452
  8
001
 10
65.603867000000008
 20
143.177008
 30
0.0
 40
0.1482017004278609
 50
359.98855200000003
 51
184.22840299999999
  0
LINE
  5
453
  8
001
 10
65.456068999999999
 20
143.16608099999999
 30
0.0
 11
65.456068999999999
 21
142.47377800000001
 31
0.0
  0
ARC
  5
454
  8
001
 10
65.604067999999984
 20
142.474378
 30
0.0
 40
0.1480006771396609
 50
180.23248899999999
 51
359.92236400000002
  0
LINE
  5
455
  8
001
 10
65.752068999999992
 20
142.47417799999999
 30
0.0
 11
65.752068999999992
 21
143.17697799999999
 31
0.0
  0
LINE
  5
456
  8
001
 10
66.200068999999985
 20
142.91717800000001
 30
0.0
 11
66.200068999999985
 21
143.27717799999999
 31
0.0
  0
LINE
  5
457
  8
001
 10
66.200068999999985
 20
142.86917800000001
 30
0.0
 11
66.340069
 21
142.86917800000001
 31
0.0
  0
LINE
  5
458
  8
001
 10
65.900068999999974
 20
142.32517799999999
 30
0.0
 11
65.900068999999974
 21
142.86917800000001
 31
0.0
  0
LINE
  5
459
  8
001
 10
66.200068999999985
 20
142.32517799999999
 30
0.0
 11
66.200068999999985
 21
142.86917800000001
 31
0.0
  0
LINE
  5
45A
  8
001
 10
66.040068999999988
 20
142.91717800000001
 30
0.0
 11
65.900068999999974
 21
142.91717800000001
 31
0.0
  0
LINE
  5
45B
  8
001
 10
74.268868999999995
 20
148.513778
 30
0.0
 11
65.268868999999995
 21
148.513778
 31
0.0
  0
LINE
  5
45C
  8
001
 10
65.268868999999995
 20
148.513778
 30
0.0
 11
65.268868999999995
 21
133.513778
 31
0.0
  0
LINE
  5
45D
  8
001
 10
65.268868999999995
 20
133.513778
 30
0.0
 11
74.268868999999995
 21
133.513778
 31
0.0
  0
LINE
  5
45E
  8
001
 10
74.268868999999995
 20
133.513778
 30
0.0
 11
74.268868999999995
 21
148.513778
 31
0.0
  0
ARC
  5
45F
  8
001
 10
74.768827000000002
 20
149.01373699999999
 30
0.0
 40
0.8000413930121839
 50
0.002964
 51
89.997035999999994
  0
LINE
  5
460
  8
001
 10
75.568868999999992
 20
133.013778
 30
0.0
 11
75.568868999999992
 21
149.013778
 31
0.0
  0
ARC
  5
461
  8
001
 10
74.768749
 20
133.01389699999999
 30
0.0
 40
0.8001194942158081
 50
270.008556
 51
359.991444
  0
LINE
  5
462
  8
001
 10
64.768868999999995
 20
132.21377799999999
 30
0.0
 11
74.768868999999995
 21
132.21377799999999
 31
0.0
  0
ARC
  5
463
  8
001
 10
64.769238000000001
 20
133.01414700000001
 30
0.0
 40
0.8003691268496165
 50
180.02641800000001
 51
269.97358200000002
  0
LINE
  5
464
  8
001
 10
63.968868999999991
 20
149.013778
 30
0.0
 11
63.968868999999991
 21
133.013778
 31
0.0
  0
ARC
  5
465
  8
001
 10
64.769114000000002
 20
149.013532
 30
0.0
 40
0.8002458887644072
 50
90.017601999999997
 51
179.98239799999999
  0
LINE
  5
466
  8
001
 10
74.768868999999995
 20
149.81377800000001
 30
0.0
 11
64.768868999999995
 21
149.81377800000001
 31
0.0
  0
LINE
  5
467
  8
001
 10
65.504069000000001
 20
143.168015
 30
0.0
 11
65.504069000000001
 21
142.46349699999999
 31
0.0
  0
ARC
  5
468
  8
001
 10
65.603858999999986
 20
143.177177
 30
0.0
 40
0.1002098325797487
 50
359.98976099999999
 51
185.245474
  0
LINE
  5
469
  8
001
 10
65.70406899999999
 20
142.473378
 30
0.0
 11
65.70406899999999
 21
143.17715899999999
 31
0.0
  0
ARC
  5
46A
  8
001
 10
65.603864000000002
 20
142.47258299999999
 30
0.0
 40
0.1002079268033788
 50
185.20178100000001
 51
0.454692
  0
LINE
  5
46B
  8
001
 10
65.790869000000001
 20
146.36651499999999
 30
0.0
 11
65.790869000000001
 21
147.05693099999999
 31
0.0
  0
ARC
  5
46C
  8
001
 10
65.680368999999999
 20
146.357078
 30
0.0
 40
0.1109022091754409
 50
180.36164600000001
 51
4.8811799999999996
  0
ARC
  5
46D
  8
001
 10
65.681168999999997
 20
147.03588300000001
 30
0.0
 40
0.1117007652222032
 50
10.861725
 51
180.151498
  0
LINE
  5
46E
  8
001
 10
65.569468999999984
 20
147.03558699999999
 30
0.0
 11
65.569468999999984
 21
146.35637800000001
 31
0.0
  0
ENDBLK
  5
3EE
  8
0
  0
BLOCK
  8
0
  2
L-39
 70
     0
 10
0.0
 20
0.0
 30
0.0
  3
L-39
  1

  0
LINE
  5
472
  8
001
 62
   253
 10
70.418869000000001
 20
169.41377800000001
 30
0.0
 11
70.418869000000001
 21
170.013778
 31
0.0
  0
LINE
  5
473
  8
001
 62
   253
 10
68.018868999999995
 20
170.013778
 30
0.0
 11
68.018868999999995
 21
169.41377800000001
 31
0.0
  0
ENDBLK
  5
471
  8
0
  0
BLOCK
  8
0
  2
JZB-40
 70
     0
 10
0.0
 20
0.0
 30
0.0
  3
JZB-40
  1

  0
CIRCLE
  5
477
  8
001
 62
     5
 10
159.275013
 20
68.550330999999986
 30
0.0
 40
0.8799999999999972
  0
LINE
  5
478
  8
001
 62
     5
 10
158.989013
 20
69.045698000000002
 30
0.0
 11
158.703013
 21
68.550330999999986
 31
0.0
  0
LINE
  5
479
  8
001
 62
     5
 10
158.989013
 20
68.054964999999996
 30
0.0
 11
159.561013
 21
68.054964999999996
 31
0.0
  0
LINE
  5
47A
  8
001
 62
     5
 10
159.561013
 20
68.054964999999996
 30
0.0
 11
159.84701299999989
 21
68.550330999999986
 31
0.0
  0
LINE
  5
47B
  8
001
 62
     5
 10
159.561013
 20
69.045698000000002
 30
0.0
 11
158.989013
 21
69.045698000000002
 31
0.0
  0
LINE
  5
47C
  8
001
 62
     5
 10
158.703013
 20
68.550330999999986
 30
0.0
 11
158.989013
 21
68.054964999999996
 31
0.0
  0
LINE
  5
47D
  8
001
 62
     5
 10
159.84701299999989
 20
68.550330999999986
 30
0.0
 11
159.561013
 21
69.045698000000002
 31
0.0
  0
CIRCLE
  5
47E
  8
001
 62
     5
 10
159.275013
 20
68.550330999999986
 30
0.0
 40
0.9999999999999996
  0
ENDBLK
  5
476
  8
0
  0
BLOCK
  8
0
  2
JZB-41
 70
     0
 10
0.0
 20
0.0
 30
0.0
  3
JZB-41
  1

  0
CIRCLE
  5
482
  8
001
 62
     5
 10
174.47501299999999
 20
68.550330999999986
 30
0.0
 40
0.8799999999999972
  0
LINE
  5
483
  8
001
 62
     5
 10
174.1890129999999
 20
69.045698000000002
 30
0.0
 11
173.90301299999999
 21
68.550330999999986
 31
0.0
  0
LINE
  5
484
  8
001
 62
     5
 10
174.1890129999999
 20
68.054964999999996
 30
0.0
 11
174.76101299999999
 21
68.054964999999996
 31
0.0
  0
LINE
  5
485
  8
001
 62
     5
 10
175.04701299999999
 20
68.550330999999986
 30
0.0
 11
174.76101299999999
 21
69.045698000000002
 31
0.0
  0
LINE
  5
486
  8
001
 62
     5
 10
174.76101299999999
 20
69.045698000000002
 30
0.0
 11
174.1890129999999
 21
69.045698000000002
 31
0.0
  0
LINE
  5
487
  8
001
 62
     5
 10
173.90301299999999
 20
68.550330999999986
 30
0.0
 11
174.1890129999999
 21
68.054964999999996
 31
0.0
  0
LINE
  5
488
  8
001
 62
     5
 10
174.76101299999999
 20
68.054964999999996
 30
0.0
 11
175.04701299999999
 21
68.550330999999986
 31
0.0
  0
CIRCLE
  5
489
  8
001
 62
     5
 10
174.47501299999999
 20
68.550330999999986
 30
0.0
 40
0.9999999999999996
  0
ENDBLK
  5
481
  8
0
  0
BLOCK
  8
0
  2
JZB-42
 70
     0
 10
0.0
 20
0.0
 30
0.0
  3
JZB-42
  1

  0
CIRCLE
  5
48D
  8
001
 62
     5
 10
148.537755
 20
75.987588999999986
 30
0.0
 40
0.7499999999999978
  0
LINE
  5
48E
  8
001
 62
     5
 10
148.995755
 20
75.987588999999986
 30
0.0
 11
148.76675499999999
 21
76.384229000000005
 31
0.0
  0
LINE
  5
48F
  8
001
 62
     5
 10
148.76675499999999
 20
76.384229000000005
 30
0.0
 11
148.30875499999999
 21
76.384229000000005
 31
0.0
  0
LINE
  5
490
  8
001
 62
     5
 10
148.30875499999999
 20
76.384229000000005
 30
0.0
 11
148.07975500000001
 21
75.987588999999986
 31
0.0
  0
LINE
  5
491
  8
001
 62
     5
 10
148.07975500000001
 20
75.987588999999986
 30
0.0
 11
148.30875499999999
 21
75.590950000000007
 31
0.0
  0
LINE
  5
492
  8
001
 62
     5
 10
148.30875499999999
 20
75.590950000000007
 30
0.0
 11
148.76675499999999
 21
75.590950000000007
 31
0.0
  0
LINE
  5
493
  8
001
 62
     5
 10
148.76675499999999
 20
75.590950000000007
 30
0.0
 11
148.995755
 21
75.987588999999986
 31
0.0
  0
CIRCLE
  5
494
  8
001
 62
     5
 10
148.537755
 20
75.987588999999986
 30
0.0
 40
0.8499999999999996
  0
ENDBLK
  5
48C
  8
0
  0
BLOCK
  8
0
  2
JZB-43
 70
     0
 10
0.0
 20
0.0
 30
0.0
  3
JZB-43
  1

  0
CIRCLE
  5
498
  8
001
 62
     5
 10
148.537755
 20
42.513072999999991
 30
0.0
 40
0.8499999999999996
  0
CIRCLE
  5
499
  8
001
 62
     5
 10
148.537755
 20
42.513072999999991
 30
0.0
 40
0.7499999999999978
  0
LINE
  5
49A
  8
001
 62
     5
 10
148.76675499999999
 20
42.116433000000001
 30
0.0
 11
148.995755
 21
42.513072999999991
 31
0.0
  0
LINE
  5
49B
  8
001
 62
     5
 10
148.995755
 20
42.513072999999991
 30
0.0
 11
148.76675499999999
 21
42.909711999999999
 31
0.0
  0
LINE
  5
49C
  8
001
 62
     5
 10
148.76675499999999
 20
42.909711999999999
 30
0.0
 11
148.30875499999999
 21
42.909711999999999
 31
0.0
  0
LINE
  5
49D
  8
001
 62
     5
 10
148.30875499999999
 20
42.116433000000001
 30
0.0
 11
148.76675499999999
 21
42.116433000000001
 31
0.0
  0
LINE
  5
49E
  8
001
 62
     5
 10
148.30875499999999
 20
42.909711999999999
 30
0.0
 11
148.07975500000001
 21
42.513072999999991
 31
0.0
  0
LINE
  5
49F
  8
001
 62
     5
 10
148.07975500000001
 20
42.513072999999991
 30
0.0
 11
148.30875499999999
 21
42.116433000000001
 31
0.0
  0
ENDBLK
  5
497
  8
0
  0
BLOCK
  8
0
  2
JZB-44
 70
     0
 10
0.0
 20
0.0
 30
0.0
  3
JZB-44
  1

  0
CIRCLE
  5
4A3
  8
001
 62
     5
 10
166.875013
 20
45.550331
 30
0.0
 40
0.9999999999999996
  0
CIRCLE
  5
4A4
  8
001
 62
     5
 10
166.875013
 20
45.550331
 30
0.0
 40
0.8799999999999972
  0
LINE
  5
4A5
  8
001
 62
     5
 10
166.58901299999999
 20
45.054965000000003
 30
0.0
 11
167.161013
 21
45.054965000000003
 31
0.0
  0
LINE
  5
4A6
  8
001
 62
     5
 10
167.447013
 20
45.550331
 30
0.0
 11
167.161013
 21
46.045698000000002
 31
0.0
  0
LINE
  5
4A7
  8
001
 62
     5
 10
166.30301299999999
 20
45.550331
 30
0.0
 11
166.58901299999999
 21
45.054965000000003
 31
0.0
  0
LINE
  5
4A8
  8
001
 62
     5
 10
167.161013
 20
46.045698000000002
 30
0.0
 11
166.58901299999999
 21
46.045698000000002
 31
0.0
  0
LINE
  5
4A9
  8
001
 62
     5
 10
166.58901299999999
 20
46.045698000000002
 30
0.0
 11
166.30301299999999
 21
45.550331
 31
0.0
  0
LINE
  5
4AA
  8
001
 62
     5
 10
167.161013
 20
45.054965000000003
 30
0.0
 11
167.447013
 21
45.550331
 31
0.0
  0
ENDBLK
  5
4A2
  8
0
  0
BLOCK
  8
0
  2
JZB-45
 70
     0
 10
0.0
 20
0.0
 30
0.0
  3
JZB-45
  1

  0
CIRCLE
  5
4AE
  8
001
 62
     5
 10
159.375013
 20
51.950330999999991
 30
0.0
 40
0.9999999999999996
  0
CIRCLE
  5
4AF
  8
001
 62
     5
 10
159.375013
 20
51.950330999999991
 30
0.0
 40
0.8799999999999972
  0
LINE
  5
4B0
  8
001
 62
     5
 10
158.80301299999999
 20
51.950330999999991
 30
0.0
 11
159.08901299999999
 21
51.454965000000001
 31
0.0
  0
LINE
  5
4B1
  8
001
 62
     5
 10
159.08901299999999
 20
51.454965000000001
 30
0.0
 11
159.661013
 21
51.454965000000001
 31
0.0
  0
LINE
  5
4B2
  8
001
 62
     5
 10
159.661013
 20
51.454965000000001
 30
0.0
 11
159.947013
 21
51.950330999999991
 31
0.0
  0
LINE
  5
4B3
  8
001
 62
     5
 10
159.947013
 20
51.950330999999991
 30
0.0
 11
159.661013
 21
52.445698
 31
0.0
  0
LINE
  5
4B4
  8
001
 62
     5
 10
159.661013
 20
52.445698
 30
0.0
 11
159.08901299999999
 21
52.445698
 31
0.0
  0
LINE
  5
4B5
  8
001
 62
     5
 10
159.08901299999999
 20
52.445698
 30
0.0
 11
158.80301299999999
 21
51.950330999999991
 31
0.0
  0
ENDBLK
  5
4AD
  8
0
  0
BLOCK
  8
0
  2
JZB-46
 70
     0
 10
0.0
 20
0.0
 30
0.0
  3
JZB-46
  1

  0
CIRCLE
  5
4B9
  8
001
 62
     5
 10
174.375013
 20
51.950330999999991
 30
0.0
 40
0.8799999999999972
  0
LINE
  5
4BA
  8
001
 62
     5
 10
174.947013
 20
51.950330999999991
 30
0.0
 11
174.661013
 21
52.445698
 31
0.0
  0
LINE
  5
4BB
  8
001
 62
     5
 10
174.661013
 20
52.445698
 30
0.0
 11
174.08901299999999
 21
52.445698
 31
0.0
  0
LINE
  5
4BC
  8
001
 62
     5
 10
174.08901299999999
 20
52.445698
 30
0.0
 11
173.80301299999999
 21
51.950330999999991
 31
0.0
  0
LINE
  5
4BD
  8
001
 62
     5
 10
173.80301299999999
 20
51.950330999999991
 30
0.0
 11
174.08901299999999
 21
51.454965000000001
 31
0.0
  0
LINE
  5
4BE
  8
001
 62
     5
 10
174.08901299999999
 20
51.454965000000001
 30
0.0
 11
174.661013
 21
51.454965000000001
 31
0.0
  0
LINE
  5
4BF
  8
001
 62
     5
 10
174.661013
 20
51.454965000000001
 30
0.0
 11
174.947013
 21
51.950330999999991
 31
0.0
  0
CIRCLE
  5
4C0
  8
001
 62
     5
 10
174.375013
 20
51.950330999999991
 30
0.0
 40
0.9999999999999996
  0
ENDBLK
  5
4B8
  8
0
  0
BLOCK
  8
0
  2
JZB-47
 70
     0
 10
0.0
 20
0.0
 30
0.0
  3
JZB-47
  1

  0
LINE
  5
4C4
  8
001
 10
144.875013
 20
46.700330999999998
 30
0.0
 11
145.275013
 21
46.700330999999998
 31
0.0
  0
LINE
  5
4C5
  8
001
 10
144.875013
 20
47.500331000000003
 30
0.0
 11
145.275013
 21
47.500331000000003
 31
0.0
  0
LINE
  5
4C6
  8
001
 10
144.875013
 20
57.500331000000003
 30
0.0
 11
145.275013
 21
57.500331000000003
 31
0.0
  0
LINE
  5
4C7
  8
001
 10
144.875013
 20
58.300331000000007
 30
0.0
 11
145.275013
 21
58.300331000000007
 31
0.0
  0
LINE
  5
4C8
  8
001
 10
144.875013
 20
46.700330999999998
 30
0.0
 11
144.875013
 21
58.300331000000007
 31
0.0
  0
LINE
  5
4C9
  8
001
 10
144.875013
 20
58.050331000000007
 30
0.0
 11
144.70556300000001
 21
58.035506000000012
 31
0.0
  0
LINE
  5
4CA
  8
001
 10
144.70556300000001
 20
56.965156000000007
 30
0.0
 11
144.875013
 21
56.950330999999998
 31
0.0
  0
LINE
  5
4CB
  8
001
 10
144.875013
 20
48.050331
 30
0.0
 11
144.70556300000001
 21
48.035505999999998
 31
0.0
  0
LINE
  5
4CC
  8
001
 10
144.70556300000001
 20
46.965156
 30
0.0
 11
144.875013
 21
46.950330999999991
 31
0.0
  0
ARC
  5
4CD
  8
001
 10
144.722994
 20
57.836267000000007
 30
0.0
 40
0.2000000000000001
 50
95.0
 51
163.74297200000001
  0
ARC
  5
4CE
  8
001
 10
144.722994
 20
57.164394999999992
 30
0.0
 40
0.2000000000000001
 50
196.25702799999999
 51
265.0
  0
ARC
  5
4CF
  8
001
 10
144.722994
 20
47.836266999999999
 30
0.0
 40
0.2000000000000001
 50
95.0
 51
163.74297200000001
  0
ARC
  5
4D0
  8
001
 10
144.722994
 20
47.164394999999992
 30
0.0
 40
0.2000000000000001
 50
196.25702799999999
 51
265.0
  0
POLYLINE
  5
4D1
  8
001
 66
     1
 10
0.0
 20
0.0
 30
0.0
  0
VERTEX
  5
4D3
  8
001
 10
144.52400700000001
 20
57.860339000000003
 30
0.0
  0
VERTEX
  5
4D4
  8
001
 10
144.523448
 20
57.860306000000008
 30
0.0
  0
VERTEX
  5
4D5
  8
001
 10
144.52257
 20
57.860334999999999
 30
0.0
  0
VERTEX
  5
4D6
  8
001
 10
144.522254
 20
57.860371999999991
 30
0.0
  0
VERTEX
  5
4D7
  8
001
 10
144.52208999999999
 20
57.860331000000002
 30
0.0
  0
SEQEND
  5
4D2
  8
001
  0
ARC
  5
4D8
  8
001
 10
145.875013
 20
57.500331000000003
 30
0.0
 40
1.399999999999999
 50
194.900597
 51
196.25702799999999
  0
ARC
  5
4D9
  8
001
 10
145.875013
 20
57.500331000000003
 30
0.0
 40
1.399999999999999
 50
163.74297200000001
 51
165.099403
  0
ARC
  5
4DA
  8
001
 10
145.875013
 20
57.500338999999997
 30
0.0
 40
1.398147345597023
 50
165.07919999999999
 51
177.04814999999999
  0
POLYLINE
  5
4DB
  8
001
 66
     1
 10
0.0
 20
0.0
 30
0.0
  0
VERTEX
  5
4DD
  8
001
 10
144.52208999999999
 20
57.860331000000002
 30
0.0
  0
VERTEX
  5
4DE
  8
001
 10
144.522233
 20
57.860289999999999
 30
0.0
  0
VERTEX
  5
4DF
  8
001
 10
144.522569
 20
57.860326999999998
 30
0.0
  0
VERTEX
  5
4E0
  8
001
 10
144.52346499999999
 20
57.860356999999993
 30
0.0
  0
VERTEX
  5
4E1
  8
001
 10
144.52400700000001
 20
57.860323999999991
 30
0.0
  0
SEQEND
  5
4DC
  8
001
  0
POLYLINE
  5
4E2
  8
001
 66
     1
 10
0.0
 20
0.0
 30
0.0
  0
VERTEX
  5
4E4
  8
001
 10
144.47872100000001
 20
57.572324000000002
 30
0.0
  0
VERTEX
  5
4E5
  8
001
 10
144.48659599999999
 20
57.572313999999999
 30
0.0
  0
VERTEX
  5
4E6
  8
001
 10
144.49810600000001
 20
57.572305999999998
 30
0.0
  0
VERTEX
  5
4E7
  8
001
 10
144.513485
 20
57.572298000000004
 30
0.0
  0
VERTEX
  5
4E8
  8
001
 10
144.52400700000001
 20
57.572293999999992
 30
0.0
  0
SEQEND
  5
4E3
  8
001
  0
POLYLINE
  5
4E9
  8
001
 66
     1
 10
0.0
 20
0.0
 30
0.0
  0
VERTEX
  5
4EB
  8
001
 10
144.52400700000001
 20
57.140338999999997
 30
0.0
  0
VERTEX
  5
4EC
  8
001
 10
144.52346499999999
 20
57.140306000000002
 30
0.0
  0
VERTEX
  5
4ED
  8
001
 10
144.522569
 20
57.140335
 30
0.0
  0
VERTEX
  5
4EE
  8
001
 10
144.522233
 20
57.140371999999992
 30
0.0
  0
VERTEX
  5
4EF
  8
001
 10
144.52208999999999
 20
57.140331000000003
 30
0.0
  0
SEQEND
  5
4EA
  8
001
  0
ARC
  5
4F0
  8
001
 10
145.875013
 20
57.500338999999997
 30
0.0
 40
1.398147345597023
 50
182.95185000000001
 51
194.92080000000001
  0
POLYLINE
  5
4F1
  8
001
 66
     1
 10
0.0
 20
0.0
 30
0.0
  0
VERTEX
  5
4F3
  8
001
 10
144.52400700000001
 20
57.428367999999999
 30
0.0
  0
VERTEX
  5
4F4
  8
001
 10
144.513485
 20
57.428364000000002
 30
0.0
  0
VERTEX
  5
4F5
  8
001
 10
144.49810600000001
 20
57.428356000000008
 30
0.0
  0
VERTEX
  5
4F6
  8
001
 10
144.48659599999999
 20
57.428348
 30
0.0
  0
VERTEX
  5
4F7
  8
001
 10
144.47872100000001
 20
57.428339000000001
 30
0.0
  0
SEQEND
  5
4F2
  8
001
  0
ARC
  5
4F8
  8
001
 10
145.875013
 20
57.500368000000002
 30
0.0
 40
1.352922762023024
 50
176.94938500000001
 51
183.05061499999999
  0
POLYLINE
  5
4F9
  8
001
 66
     1
 10
0.0
 20
0.0
 30
0.0
  0
VERTEX
  5
4FB
  8
001
 10
144.52400700000001
 20
57.572368000000012
 30
0.0
  0
VERTEX
  5
4FC
  8
001
 10
144.513485
 20
57.572364
 30
0.0
  0
VERTEX
  5
4FD
  8
001
 10
144.49810600000001
 20
57.572356000000013
 30
0.0
  0
VERTEX
  5
4FE
  8
001
 10
144.48659599999999
 20
57.572347999999991
 30
0.0
  0
VERTEX
  5
4FF
  8
001
 10
144.47872100000001
 20
57.572338999999999
 30
0.0
  0
SEQEND
  5
4FA
  8
001
  0
POLYLINE
  5
500
  8
001
 66
     1
 10
0.0
 20
0.0
 30
0.0
  0
VERTEX
  5
502
  8
001
 10
144.52400700000001
 20
47.860339000000003
 30
0.0
  0
VERTEX
  5
503
  8
001
 10
144.523448
 20
47.860306000000001
 30
0.0
  0
VERTEX
  5
504
  8
001
 10
144.52257
 20
47.860334999999999
 30
0.0
  0
VERTEX
  5
505
  8
001
 10
144.522254
 20
47.860371999999991
 30
0.0
  0
VERTEX
  5
506
  8
001
 10
144.52208999999999
 20
47.860331000000002
 30
0.0
  0
SEQEND
  5
501
  8
001
  0
ARC
  5
507
  8
001
 10
145.875013
 20
47.500331000000003
 30
0.0
 40
1.399999999999999
 50
194.900597
 51
196.25702799999999
  0
ARC
  5
508
  8
001
 10
145.875013
 20
47.500331000000003
 30
0.0
 40
1.399999999999999
 50
163.74297200000001
 51
165.099403
  0
ARC
  5
509
  8
001
 10
145.875013
 20
47.500338999999997
 30
0.0
 40
1.398147345597023
 50
165.07919999999999
 51
177.04814999999999
  0
POLYLINE
  5
50A
  8
001
 66
     1
 10
0.0
 20
0.0
 30
0.0
  0
VERTEX
  5
50C
  8
001
 10
144.52208999999999
 20
47.860331000000002
 30
0.0
  0
VERTEX
  5
50D
  8
001
 10
144.522233
 20
47.860289999999999
 30
0.0
  0
VERTEX
  5
50E
  8
001
 10
144.522569
 20
47.860326999999998
 30
0.0
  0
VERTEX
  5
50F
  8
001
 10
144.52346499999999
 20
47.860357
 30
0.0
  0
VERTEX
  5
510
  8
001
 10
144.52400700000001
 20
47.860323999999991
 30
0.0
  0
SEQEND
  5
50B
  8
001
  0
POLYLINE
  5
511
  8
001
 66
     1
 10
0.0
 20
0.0
 30
0.0
  0
VERTEX
  5
513
  8
001
 10
144.47872100000001
 20
47.572324000000002
 30
0.0
  0
VERTEX
  5
514
  8
001
 10
144.48659599999999
 20
47.572313999999999
 30
0.0
  0
VERTEX
  5
515
  8
001
 10
144.49810600000001
 20
47.57230599999999
 30
0.0
  0
VERTEX
  5
516
  8
001
 10
144.513485
 20
47.572298000000004
 30
0.0
  0
VERTEX
  5
517
  8
001
 10
144.52400700000001
 20
47.572293999999992
 30
0.0
  0
SEQEND
  5
512
  8
001
  0
POLYLINE
  5
518
  8
001
 66
     1
 10
0.0
 20
0.0
 30
0.0
  0
VERTEX
  5
51A
  8
001
 10
144.52400700000001
 20
47.140338999999997
 30
0.0
  0
VERTEX
  5
51B
  8
001
 10
144.52346499999999
 20
47.140306000000002
 30
0.0
  0
VERTEX
  5
51C
  8
001
 10
144.522569
 20
47.140335
 30
0.0
  0
VERTEX
  5
51D
  8
001
 10
144.522233
 20
47.140371999999992
 30
0.0
  0
VERTEX
  5
51E
  8
001
 10
144.52208999999999
 20
47.140331000000003
 30
0.0
  0
SEQEND
  5
519
  8
001
  0
ARC
  5
51F
  8
001
 10
145.875013
 20
47.500338999999997
 30
0.0
 40
1.398147345597023
 50
182.95185000000001
 51
194.92080000000001
  0
POLYLINE
  5
520
  8
001
 66
     1
 10
0.0
 20
0.0
 30
0.0
  0
VERTEX
  5
522
  8
001
 10
144.52400700000001
 20
47.428367999999999
 30
0.0
  0
VERTEX
  5
523
  8
001
 10
144.513485
 20
47.428364000000002
 30
0.0
  0
VERTEX
  5
524
  8
001
 10
144.49810600000001
 20
47.428356000000001
 30
0.0
  0
VERTEX
  5
525
  8
001
 10
144.48659599999999
 20
47.428347999999993
 30
0.0
  0
VERTEX
  5
526
  8
001
 10
144.47872100000001
 20
47.428338999999987
 30
0.0
  0
SEQEND
  5
521
  8
001
  0
ARC
  5
527
  8
001
 10
145.875013
 20
47.500368000000002
 30
0.0
 40
1.352922762023024
 50
176.94938500000001
 51
183.05061499999999
  0
POLYLINE
  5
528
  8
001
 66
     1
 10
0.0
 20
0.0
 30
0.0
  0
VERTEX
  5
52A
  8
001
 10
144.52400700000001
 20
47.572367999999997
 30
0.0
  0
VERTEX
  5
52B
  8
001
 10
144.513485
 20
47.572364
 30
0.0
  0
VERTEX
  5
52C
  8
001
 10
144.49810600000001
 20
47.572355999999999
 30
0.0
  0
VERTEX
  5
52D
  8
001
 10
144.48659599999999
 20
47.572347999999991
 30
0.0
  0
VERTEX
  5
52E
  8
001
 10
144.47872100000001
 20
47.572338999999999
 30
0.0
  0
SEQEND
  5
529
  8
001
  0
LINE
  5
52F
  8
001
 10
144.52400600000001
 20
57.572338999999999
 30
0.0
 11
144.47872100000001
 21
57.572338999999999
 31
0.0
  0
LINE
  5
530
  8
001
 10
144.52400600000001
 20
47.572338999999999
 30
0.0
 11
144.47872100000001
 21
47.572338999999999
 31
0.0
  0
LINE
  5
531
  8
001
 10
144.37691000000001
 20
53.827061
 30
0.0
 11
144.37691000000001
 21
51.171770000000002
 31
0.0
  0
LINE
  5
532
  8
001
 10
144.875013
 20
54.427061000000002
 30
0.0
 11
144.37691000000001
 21
53.827061
 31
0.0
  0
LINE
  5
533
  8
001
 10
144.37691000000001
 20
51.171770000000002
 30
0.0
 11
144.875013
 21
50.571770000000001
 31
0.0
  0
LINE
  5
534
  8
001
 10
144.47501299999999
 20
50.100330999999997
 30
0.0
 11
144.875013
 21
50.100330999999997
 31
0.0
  0
LINE
  5
535
  8
001
 10
144.47501299999999
 20
50.100330999999997
 30
0.0
 11
144.47501299999999
 21
51.053598999999991
 31
0.0
  0
LINE
  5
536
  8
001
 10
144.47501299999999
 20
53.945232999999988
 30
0.0
 11
144.47501299999999
 21
54.900331000000008
 31
0.0
  0
LINE
  5
537
  8
001
 10
144.47501299999999
 20
54.900331000000008
 30
0.0
 11
144.875013
 21
54.900331000000008
 31
0.0
  0
LINE
  5
538
  8
001
 10
143.39449200000001
 20
50.700330999999991
 30
0.0
 11
144.47501299999999
 21
50.700330999999991
 31
0.0
  0
LINE
  5
539
  8
001
 10
143.39449200000001
 20
50.700330999999991
 30
0.0
 11
143.39449200000001
 21
54.300331000000007
 31
0.0
  0
LINE
  5
53A
  8
001
 10
143.39449200000001
 20
54.300331000000007
 30
0.0
 11
144.47501299999999
 21
54.300331000000007
 31
0.0
  0
ENDBLK
  5
4C3
  8
0
  0
BLOCK
  8
0
  2
JZB-48
 70
     0
 10
0.0
 20
0.0
 30
0.0
  3
JZB-48
  1

  0
CIRCLE
  5
53E
  8
001
 62
     5
 10
185.21227099999999
 20
42.513072999999991
 30
0.0
 40
0.8499999999999996
  0
CIRCLE
  5
53F
  8
001
 62
     5
 10
185.21227099999999
 20
42.513072999999991
 30
0.0
 40
0.7499999999999978
  0
LINE
  5
540
  8
001
 62
     5
 10
185.441271
 20
42.116433000000001
 30
0.0
 11
184.983271
 21
42.116433000000001
 31
0.0
  0
LINE
  5
541
  8
001
 62
     5
 10
185.441271
 20
42.909711999999999
 30
0.0
 11
185.67027100000001
 21
42.513072999999991
 31
0.0
  0
LINE
  5
542
  8
001
 62
     5
 10
184.983271
 20
42.909711999999999
 30
0.0
 11
185.441271
 21
42.909711999999999
 31
0.0
  0
LINE
  5
543
  8
001
 62
     5
 10
184.75427099999999
 20
42.513072999999991
 30
0.0
 11
184.983271
 21
42.909711999999999
 31
0.0
  0
LINE
  5
544
  8
001
 62
     5
 10
184.983271
 20
42.116433000000001
 30
0.0
 11
184.75427099999999
 21
42.513072999999991
 31
0.0
  0
LINE
  5
545
  8
001
 62
     5
 10
185.67027100000001
 20
42.513072999999991
 30
0.0
 11
185.441271
 21
42.116433000000001
 31
0.0
  0
ENDBLK
  5
53D
  8
0
  0
BLOCK
  8
0
  2
JZB-49
 70
     0
 10
0.0
 20
0.0
 30
0.0
  3
JZB-49
  1

  0
CIRCLE
  5
549
  8
001
 62
     5
 10
185.21227099999999
 20
75.987588999999986
 30
0.0
 40
0.7499999999999978
  0
LINE
  5
54A
  8
001
 62
     5
 10
185.441271
 20
76.384229000000005
 30
0.0
 11
185.67027100000001
 21
75.987588999999986
 31
0.0
  0
LINE
  5
54B
  8
001
 62
     5
 10
184.75427099999999
 20
75.987588999999986
 30
0.0
 11
184.983271
 21
76.384229000000005
 31
0.0
  0
LINE
  5
54C
  8
001
 62
     5
 10
184.983271
 20
75.590950000000007
 30
0.0
 11
184.75427099999999
 21
75.987588999999986
 31
0.0
  0
LINE
  5
54D
  8
001
 62
     5
 10
185.441271
 20
75.590950000000007
 30
0.0
 11
184.983271
 21
75.590950000000007
 31
0.0
  0
LINE
  5
54E
  8
001
 62
     5
 10
185.67027100000001
 20
75.987588999999986
 30
0.0
 11
185.441271
 21
75.590950000000007
 31
0.0
  0
LINE
  5
54F
  8
001
 62
     5
 10
184.983271
 20
76.384229000000005
 30
0.0
 11
185.441271
 21
76.384229000000005
 31
0.0
  0
CIRCLE
  5
550
  8
001
 62
     5
 10
185.21227099999999
 20
75.987588999999986
 30
0.0
 40
0.8499999999999996
  0
ENDBLK
  5
548
  8
0
  0
BLOCK
  8
0
  2
MEMORI-50
 70
     0
 10
0.0
 20
0.0
 30
0.0
  3
MEMORI-50
  1

  0
LINE
  5
554
  8
001
 10
330.91884500000009
 20
149.33793499999999
 30
0.0
 11
331.29105800000002
 21
149.27230299999999
 31
0.0
  0
LINE
  5
555
  8
001
 10
330.976699
 20
149.66604100000001
 30
0.0
 11
331.34891199999998
 21
149.60040900000001
 31
0.0
  0
ARC
  5
556
  8
001
 10
330.94777199999999
 20
149.50198800000001
 30
0.0
 40
0.1665836835276852
 50
80.0
 51
260.0
  0
ARC
  5
557
  8
001
 10
331.31998499999997
 20
149.43635599999999
 30
0.0
 40
0.1665836835276852
 50
260.0
 51
80.0
  0
ENDBLK
  5
553
  8
0
  0
BLOCK
  8
0
  2
MEMORI1-51
 70
     0
 10
0.0
 20
0.0
 30
0.0
  3
MEMORI1-51
  1

  0
LINE
  5
55B
  8
001
 10
333.945808
 20
154.450773
 30
0.0
 11
333.91679199999999
 21
154.28621200000001
 31
0.0
  0
LINE
  5
55C
  8
001
 10
333.945808
 20
154.450773
 30
0.0
 11
334.34547700000002
 21
153.879987
 31
0.0
  0
ENDBLK
  5
55A
  8
0
  0
BLOCK
  8
0
  2
MEMORI2-52
 70
     0
 10
0.0
 20
0.0
 30
0.0
  3
MEMORI2-52
  1

  0
LINE
  5
560
  8
001
 10
339.57036099999999
 20
155.78083000000001
 30
0.0
 11
339.69657999999998
 21
155.75857400000001
 31
0.0
  0
LINE
  5
561
  8
001
 10
339.32760100000002
 20
155.10183499999999
 30
0.0
 11
339.76042899999999
 21
155.56864899999999
 31
0.0
  0
ARC
  5
562
  8
001
 10
339.67676899999998
 20
155.646219
 30
0.0
 40
0.1140884215981572
 50
317.16339499999998
 51
80.0
  0
ARC
  5
563
  8
001
 10
339.55291699999998
 20
155.68190200000001
 30
0.0
 40
0.1004537157458145
 50
80.0
 51
170.0
  0
LINE
  5
564
  8
001
 10
339.32760100000002
 20
155.10183499999999
 30
0.0
 11
339.68971599999998
 21
155.03798399999999
 31
0.0
  0
ENDBLK
  5
55F
  8
0
  0
BLOCK
  8
0
  2
MEMORI3-53
 70
     0
 10
0.0
 20
0.0
 30
0.0
  3
MEMORI3-53
  1

  0
ARC
  5
568
  8
001
 10
344.492549
 20
152.46456800000001
 30
0.0
 40
0.1589714971519438
 50
237.001766
 51
35.0
  0
ARC
  5
569
  8
001
 10
344.18783300000001
 20
152.32359600000001
 30
0.0
 40
0.2182725188405134
 50
215.0
 51
2.0070099999999989
  0
LINE
  5
56A
  8
001
 10
344.40597100000002
 20
152.33124000000001
 30
0.0
 11
344.28838300000001
 21
152.49917400000001
 31
0.0
  0
LINE
  5
56B
  8
001
 10
344.622771
 20
152.55574999999999
 30
0.0
 11
344.51409799999999
 21
152.71095199999999
 31
0.0
  0
LINE
  5
56C
  8
001
 10
344.00903399999999
 20
152.19839999999999
 30
0.0
 11
343.92991799999999
 21
152.31139099999999
 31
0.0
  0
ENDBLK
  5
567
  8
0
  0
BLOCK
  8
0
  2
DIM-54
 70
     0
 10
0.0
 20
0.0
 30
0.0
  3
DIM-54
  1

  0
TEXT
  5
570
  8
001
 10
310.91188099999999
 20
106.18800400000001
 30
0.0
 40
4.0
  1
コード引出し穴
 41
0.833333
  0
POLYLINE
  5
571
  8
001
 66
     1
 10
0.0
 20
0.0
 30
0.0
 70
     1
 40
0.5
 41
0.5
  0
VERTEX
  5
573
  8
001
 10
355.219944
 20
130.21377799999999
 30
0.0
 42
1.0
  0
VERTEX
  5
574
  8
001
 10
354.719944
 20
130.21377799999999
 30
0.0
 42
1.0
  0
SEQEND
  5
572
  8
001
  0
POLYLINE
  5
575
  8
001
 66
     1
 10
0.0
 20
0.0
 30
0.0
  0
VERTEX
  5
577
  8
001
 10
354.969944
 20
130.21377799999999
 30
0.0
  0
VERTEX
  5
578
  8
001
 10
340.91188099999999
 20
105.18800400000001
 30
0.0
  0
VERTEX
  5
579
  8
001
 10
308.91188099999999
 20
105.18800400000001
 30
0.0
  0
SEQEND
  5
576
  8
001
  0
ENDBLK
  5
56F
  8
0
  0
BLOCK
  8
0
  2
*D55
 70
     1
 10
0.0
 20
0.0
 30
0.0
  3
*D55
  1

  0
LINE
  5
1583
  8
001
 62
     0
 10
1352.3161849999999
 20
863.06900499999995
 30
0.0
 11
1352.3161849999999
 21
1023.514765
 31
0.0
  0
LINE
  5
1584
  8
001
 62
     0
 10
1245.3161849999999
 20
840.05692499999998
 30
0.0
 11
1245.3161849999999
 21
1023.514765
 31
0.0
  0
LINE
  5
1585
  8
001
 62
     0
 10
1350.8161849999999
 20
1020.764765
 30
0.0
 11
1246.8161849999999
 21
1020.764765
 31
0.0
  0
SOLID
  5
1586
  8
001
 62
     0
 10
1350.8161849999999
 20
1021.014765
 30
0.0
 11
1350.8161849999999
 21
1020.514765
 31
0.0
 12
1352.3161849999999
 22
1020.764765
 32
0.0
 13
1352.3161849999999
 23
1020.764765
 33
0.0
  0
SOLID
  5
1587
  8
001
 62
     0
 10
1246.8161849999999
 20
1021.014765
 30
0.0
 11
1246.8161849999999
 21
1020.514765
 31
0.0
 12
1245.3161849999999
 22
1020.764765
 32
0.0
 13
1245.3161849999999
 23
1020.764765
 33
0.0
  0
INSERT
  5
1588
  8
0
  2
*U80
 10
0.0
 20
0.0
 30
0.0
  0
POINT
  5
1589
  8
DEFPOINTS
 62
     0
 10
1352.3161849999999
 20
863.06900499999995
 30
0.0
  0
POINT
  5
158A
  8
DEFPOINTS
 62
     0
 10
1245.3161849999999
 20
840.05692499999998
 30
0.0
  0
POINT
  5
158B
  8
DEFPOINTS
 62
     0
 10
1245.3161849999999
 20
1020.764765
 30
0.0
  0
ENDBLK
  5
57C
  8
0
  0
BLOCK
  8
0
  2
*D56
 70
     1
 10
0.0
 20
0.0
 30
0.0
  3
*D56
  1

  0
LINE
  5
157A
  8
001
 62
     0
 10
1156.826235
 20
632.09802999999999
 30
0.0
 11
1091.6154449999999
 21
632.09802999999999
 31
0.0
  0
LINE
  5
157B
  8
001
 62
     0
 10
1181.741115
 20
543.0688899999999
 30
0.0
 11
1091.6154449999999
 21
543.0688899999999
 31
0.0
  0
LINE
  5
157C
  8
001
 62
     0
 10
1094.3654449999999
 20
630.59802999999988
 30
0.0
 11
1094.3654449999999
 21
544.56889000000001
 31
0.0
  0
SOLID
  5
157D
  8
001
 62
     0
 10
1094.1154449999999
 20
630.59802999999988
 30
0.0
 11
1094.6154449999999
 21
630.59802999999988
 31
0.0
 12
1094.3654449999999
 22
632.09802999999999
 32
0.0
 13
1094.3654449999999
 23
632.09802999999999
 33
0.0
  0
SOLID
  5
157E
  8
001
 62
     0
 10
1094.1154449999999
 20
544.56889000000001
 30
0.0
 11
1094.6154449999999
 21
544.56889000000001
 31
0.0
 12
1094.3654449999999
 22
543.0688899999999
 32
0.0
 13
1094.3654449999999
 23
543.0688899999999
 33
0.0
  0
INSERT
  5
157F
  8
0
  2
*U79
 10
0.0
 20
0.0
 30
0.0
  0
POINT
  5
1580
  8
DEFPOINTS
 62
     0
 10
1156.826235
 20
632.09802999999999
 30
0.0
  0
POINT
  5
1581
  8
DEFPOINTS
 62
     0
 10
1181.741115
 20
543.0688899999999
 30
0.0
  0
POINT
  5
1582
  8
DEFPOINTS
 62
     0
 10
1094.3654449999999
 20
543.0688899999999
 30
0.0
  0
ENDBLK
  5
590
  8
0
  0
BLOCK
  8
0
  2
*D57
 70
     1
 10
0.0
 20
0.0
 30
0.0
  3
*D57
  1

  0
LINE
  5
1571
  8
001
 62
     0
 10
911.37506499999995
 20
869.68668500000013
 30
0.0
 11
911.37506499999995
 21
951.38345500000003
 31
0.0
  0
LINE
  5
1572
  8
001
 62
     0
 10
661.37506499999995
 20
869.68668500000013
 30
0.0
 11
661.37506499999995
 21
951.38345500000003
 31
0.0
  0
LINE
  5
1573
  8
001
 62
     0
 10
909.87506499999995
 20
948.63345500000003
 30
0.0
 11
662.87506499999995
 21
948.63345500000003
 31
0.0
  0
SOLID
  5
1574
  8
001
 62
     0
 10
909.87506499999995
 20
948.88345499999991
 30
0.0
 11
909.87506499999995
 21
948.38345500000003
 31
0.0
 12
911.37506499999995
 22
948.63345500000003
 32
0.0
 13
911.37506499999995
 23
948.63345500000003
 33
0.0
  0
SOLID
  5
1575
  8
001
 62
     0
 10
662.87506499999995
 20
948.88345499999991
 30
0.0
 11
662.87506499999995
 21
948.38345500000003
 31
0.0
 12
661.37506499999995
 22
948.63345500000003
 32
0.0
 13
661.37506499999995
 23
948.63345500000003
 33
0.0
  0
INSERT
  5
1576
  8
0
  2
*U78
 10
0.0
 20
0.0
 30
0.0
  0
POINT
  5
1577
  8
DEFPOINTS
 62
     0
 10
911.37506499999995
 20
869.68668500000013
 30
0.0
  0
POINT
  5
1578
  8
DEFPOINTS
 62
     0
 10
661.37506499999995
 20
869.68668500000013
 30
0.0
  0
POINT
  5
1579
  8
DEFPOINTS
 62
     0
 10
661.37506499999995
 20
948.63345500000003
 30
0.0
  0
ENDBLK
  5
5A6
  8
0
  0
BLOCK
  8
0
  2
*D58
 70
     1
 10
0.0
 20
0.0
 30
0.0
  3
*D58
  1

  0
LINE
  5
1568
  8
001
 62
     0
 10
910.87506499999995
 20
870.39379000000008
 30
0.0
 11
1002.7920350000001
 21
870.39379000000008
 31
0.0
  0
LINE
  5
1569
  8
001
 62
     0
 10
882.45013500000005
 20
543.0688899999999
 30
0.0
 11
1002.7920350000001
 21
543.0688899999999
 31
0.0
  0
LINE
  5
156A
  8
001
 62
     0
 10
1000.0420350000001
 20
868.89378999999997
 30
0.0
 11
1000.0420350000001
 21
544.56889000000001
 31
0.0
  0
SOLID
  5
156B
  8
001
 62
     0
 10
999.79203500000006
 20
868.89378999999997
 30
0.0
 11
1000.2920350000001
 21
868.89378999999997
 31
0.0
 12
1000.0420350000001
 22
870.39379000000008
 32
0.0
 13
1000.0420350000001
 23
870.39379000000008
 33
0.0
  0
SOLID
  5
156C
  8
001
 62
     0
 10
999.79203500000006
 20
544.56889000000001
 30
0.0
 11
1000.2920350000001
 21
544.56889000000001
 31
0.0
 12
1000.0420350000001
 22
543.0688899999999
 32
0.0
 13
1000.0420350000001
 23
543.0688899999999
 33
0.0
  0
INSERT
  5
156D
  8
0
  2
*U77
 10
0.0
 20
0.0
 30
0.0
  0
POINT
  5
156E
  8
DEFPOINTS
 62
     0
 10
910.87506499999995
 20
870.39379000000008
 30
0.0
  0
POINT
  5
156F
  8
DEFPOINTS
 62
     0
 10
882.45013500000005
 20
543.0688899999999
 30
0.0
  0
POINT
  5
1570
  8
DEFPOINTS
 62
     0
 10
1000.0420350000001
 20
543.0688899999999
 30
0.0
  0
ENDBLK
  5
5BA
  8
0
  0
BLOCK
  8
0
  2
*D59
 70
     1
 10
0.0
 20
0.0
 30
0.0
  3
*D59
  1

  0
LINE
  5
155F
  8
001
 62
     0
 10
894.37506499999995
 20
800.26889000000006
 30
0.0
 11
955.27204000000029
 21
800.26889000000006
 31
0.0
  0
LINE
  5
1560
  8
001
 62
     0
 10
882.45013500000005
 20
543.0688899999999
 30
0.0
 11
955.27204000000006
 21
543.0688899999999
 31
0.0
  0
LINE
  5
1561
  8
001
 62
     0
 10
952.52204000000029
 20
798.76889000000006
 30
0.0
 11
952.52204000000017
 21
544.56889000000001
 31
0.0
  0
SOLID
  5
1562
  8
001
 62
     0
 10
952.27204000000017
 20
798.76889000000006
 30
0.0
 11
952.77204000000029
 21
798.76889000000006
 31
0.0
 12
952.52204000000029
 22
800.26889000000006
 32
0.0
 13
952.52204000000029
 23
800.26889000000006
 33
0.0
  0
SOLID
  5
1563
  8
001
 62
     0
 10
952.27204000000017
 20
544.56889000000001
 30
0.0
 11
952.77204000000006
 21
544.56889000000001
 31
0.0
 12
952.52204000000017
 22
543.0688899999999
 32
0.0
 13
952.52204000000017
 23
543.0688899999999
 33
0.0
  0
INSERT
  5
1564
  8
0
  2
*U76
 10
0.0
 20
0.0
 30
0.0
  0
POINT
  5
1565
  8
DEFPOINTS
 62
     0
 10
894.37506499999995
 20
800.26889000000006
 30
0.0
  0
POINT
  5
1566
  8
DEFPOINTS
 62
     0
 10
882.45013500000005
 20
543.0688899999999
 30
0.0
  0
POINT
  5
1567
  8
DEFPOINTS
 62
     0
 10
952.52204000000017
 20
543.0688899999999
 30
0.0
  0
ENDBLK
  5
5CE
  8
0
  0
BLOCK
  8
0
  2
*D60
 70
     1
 10
0.0
 20
0.0
 30
0.0
  3
*D60
  1

  0
LINE
  5
1556
  8
001
 62
     0
 10
894.37506499999995
 20
577.06889000000001
 30
0.0
 11
894.37506499999995
 21
500.67528499999997
 31
0.0
  0
LINE
  5
1557
  8
001
 62
     0
 10
678.37506499999995
 20
577.06889000000001
 30
0.0
 11
678.37506499999995
 21
500.67528499999997
 31
0.0
  0
LINE
  5
1558
  8
001
 62
     0
 10
892.87506499999995
 20
503.42528499999997
 30
0.0
 11
679.87506499999995
 21
503.42528499999997
 31
0.0
  0
SOLID
  5
1559
  8
001
 62
     0
 10
892.87506499999995
 20
503.67528499999997
 30
0.0
 11
892.87506499999995
 21
503.17528499999997
 31
0.0
 12
894.37506499999995
 22
503.42528499999997
 32
0.0
 13
894.37506499999995
 23
503.42528499999997
 33
0.0
  0
SOLID
  5
155A
  8
001
 62
     0
 10
679.87506499999995
 20
503.67528499999997
 30
0.0
 11
679.87506499999995
 21
503.17528499999997
 31
0.0
 12
678.37506499999995
 22
503.42528499999997
 32
0.0
 13
678.37506499999995
 23
503.42528499999997
 33
0.0
  0
INSERT
  5
155B
  8
0
  2
*U75
 10
0.0
 20
0.0
 30
0.0
  0
POINT
  5
155C
  8
DEFPOINTS
 62
     0
 10
894.37506499999995
 20
577.06889000000001
 30
0.0
  0
POINT
  5
155D
  8
DEFPOINTS
 62
     0
 10
678.37506499999995
 20
577.06889000000001
 30
0.0
  0
POINT
  5
155E
  8
DEFPOINTS
 62
     0
 10
678.37506499999995
 20
503.42528499999997
 30
0.0
  0
ENDBLK
  5
5E2
  8
0
  0
BLOCK
  8
0
  2
DIM-55
 70
     0
 10
0.0
 20
0.0
 30
0.0
  3
DIM-55
  1

  0
TEXT
  5
5F7
  8
001
 10
115.995559
 20
123.469069
 30
0.0
 40
4.0
  1
シューター
 41
0.833333
  0
POLYLINE
  5
5F8
  8
001
 66
     1
 10
0.0
 20
0.0
 30
0.0
 70
     1
 40
0.5
 41
0.5
  0
VERTEX
  5
5FA
  8
001
 10
159.76501300000001
 20
138.45306600000001
 30
0.0
 42
1.0
  0
VERTEX
  5
5FB
  8
001
 10
159.2650129999999
 20
138.45306600000001
 30
0.0
 42
1.0
  0
SEQEND
  5
5F9
  8
001
  0
POLYLINE
  5
5FC
  8
001
 66
     1
 10
0.0
 20
0.0
 30
0.0
  0
VERTEX
  5
5FE
  8
001
 10
159.51501300000001
 20
138.45306600000001
 30
0.0
  0
VERTEX
  5
5FF
  8
001
 10
137.99555899999999
 20
122.469069
 30
0.0
  0
VERTEX
  5
600
  8
001
 10
113.995559
 20
122.469069
 30
0.0
  0
SEQEND
  5
5FD
  8
001
  0
ENDBLK
  5
5F6
  8
0
  0
BLOCK
  8
0
  2
DIM-56
 70
     0
 10
0.0
 20
0.0
 30
0.0
  3
DIM-56
  1

  0
TEXT
  5
604
  8
001
 10
119.02755999999999
 20
105.325074
 30
0.0
 40
4.0
  1
ゴム足
 41
0.833333
  0
POLYLINE
  5
605
  8
001
 66
     1
 10
0.0
 20
0.0
 30
0.0
 70
     1
 40
0.5
 41
0.5
  0
VERTEX
  5
607
  8
001
 10
150.12555599999999
 20
117.41377799999999
 30
0.0
 42
1.0
  0
VERTEX
  5
608
  8
001
 10
149.62555599999999
 20
117.41377799999999
 30
0.0
 42
1.0
  0
SEQEND
  5
606
  8
001
  0
POLYLINE
  5
609
  8
001
 66
     1
 10
0.0
 20
0.0
 30
0.0
  0
VERTEX
  5
60B
  8
001
 10
149.87555599999999
 20
117.41377799999999
 30
0.0
  0
VERTEX
  5
60C
  8
001
 10
133.02755999999999
 20
104.325074
 30
0.0
  0
VERTEX
  5
60D
  8
001
 10
117.02755999999999
 20
104.325074
 30
0.0
  0
SEQEND
  5
60A
  8
001
  0
ENDBLK
  5
603
  8
0
  0
BLOCK
  8
0
  2
DIM-57
 70
     0
 10
0.0
 20
0.0
 30
0.0
  3
DIM-57
  1

  0
TEXT
  5
611
  8
001
 10
35.429327000000001
 20
135.54433900000001
 30
0.0
 40
4.0
  1
スイッチ
 41
0.833333
  0
POLYLINE
  5
612
  8
001
 66
     1
 10
0.0
 20
0.0
 30
0.0
 70
     1
 40
0.5
 41
0.5
  0
VERTEX
  5
614
  8
001
 10
69.936344999999974
 20
143.61287999999999
 30
0.0
 42
1.0
  0
VERTEX
  5
615
  8
001
 10
69.436344999999989
 20
143.61287999999999
 30
0.0
 42
1.0
  0
SEQEND
  5
613
  8
001
  0
POLYLINE
  5
616
  8
001
 66
     1
 10
0.0
 20
0.0
 30
0.0
  0
VERTEX
  5
618
  8
001
 10
69.686344999999989
 20
143.61287999999999
 30
0.0
  0
VERTEX
  5
619
  8
001
 10
53.429327000000001
 20
134.54433900000001
 30
0.0
  0
VERTEX
  5
61A
  8
001
 10
33.429327000000001
 20
134.54433900000001
 30
0.0
  0
SEQEND
  5
617
  8
001
  0
ENDBLK
  5
610
  8
0
  0
BLOCK
  8
0
  2
DIM-58
 70
     0
 10
0.0
 20
0.0
 30
0.0
  3
DIM-58
  1

  0
TEXT
  5
61E
  8
001
 10
33.54926300000001
 20
126.58638999999999
 30
0.0
 40
4.0
  1
ヒューズ
 41
0.833333
  0
POLYLINE
  5
61F
  8
001
 66
     1
 10
0.0
 20
0.0
 30
0.0
 70
     1
 40
0.5
 41
0.5
  0
VERTEX
  5
621
  8
001
 10
70.017953000000006
 20
136.021423
 30
0.0
 42
1.0
  0
VERTEX
  5
622
  8
001
 10
69.517953000000006
 20
136.021423
 30
0.0
 42
1.0
  0
SEQEND
  5
620
  8
001
  0
POLYLINE
  5
623
  8
001
 66
     1
 10
0.0
 20
0.0
 30
0.0
  0
VERTEX
  5
625
  8
001
 10
69.767953000000006
 20
136.021423
 30
0.0
  0
VERTEX
  5
626
  8
001
 10
51.549263000000003
 20
125.58638999999999
 30
0.0
  0
VERTEX
  5
627
  8
001
 10
31.549263
 20
125.58638999999999
 30
0.0
  0
SEQEND
  5
624
  8
001
  0
ENDBLK
  5
61D
  8
0
  0
BLOCK
  8
0
  2
*D65
 70
     1
 10
0.0
 20
0.0
 30
0.0
  3
*D65
  1

  0
LINE
  5
154D
  8
001
 62
     0
 10
462.251195
 20
639.59336499999995
 30
0.0
 11
462.251195
 21
945.08946999999989
 31
0.0
  0
LINE
  5
154E
  8
001
 62
     0
 10
231.594345
 20
791.06889000000001
 30
0.0
 11
231.594345
 21
945.08946999999989
 31
0.0
  0
LINE
  5
154F
  8
001
 62
     0
 10
460.75119500000011
 20
942.33946999999989
 30
0.0
 11
233.094345
 21
942.33946999999989
 31
0.0
  0
SOLID
  5
1550
  8
001
 62
     0
 10
460.75119500000011
 20
942.58946999999978
 30
0.0
 11
460.75119500000011
 21
942.08946999999989
 31
0.0
 12
462.251195
 22
942.33946999999989
 32
0.0
 13
462.251195
 23
942.33946999999989
 33
0.0
  0
SOLID
  5
1551
  8
001
 62
     0
 10
233.094345
 20
942.58946999999978
 30
0.0
 11
233.094345
 21
942.08946999999989
 31
0.0
 12
231.594345
 22
942.33946999999989
 32
0.0
 13
231.594345
 23
942.33946999999989
 33
0.0
  0
INSERT
  5
1552
  8
0
  2
*U74
 10
0.0
 20
0.0
 30
0.0
  0
POINT
  5
1553
  8
DEFPOINTS
 62
     0
 10
462.251195
 20
639.59336499999995
 30
0.0
  0
POINT
  5
1554
  8
DEFPOINTS
 62
     0
 10
231.594345
 20
791.06889000000001
 30
0.0
  0
POINT
  5
1555
  8
DEFPOINTS
 62
     0
 10
231.594345
 20
942.33946999999989
 30
0.0
  0
ENDBLK
  5
62A
  8
0
  0
BLOCK
  8
0
  2
DIM-59
 70
     0
 10
0.0
 20
0.0
 30
0.0
  3
DIM-59
  1

  0
TEXT
  5
63F
  8
001
 10
185.98842300000001
 20
205.13217499999999
 30
0.0
 40
4.0
  1
カッターカバー
 41
0.833333
  0
POLYLINE
  5
640
  8
001
 66
     1
 10
0.0
 20
0.0
 30
0.0
 70
     1
 40
0.5
 41
0.5
  0
VERTEX
  5
642
  8
001
 10
170.46842899999999
 20
174.432188
 30
0.0
 42
1.0
  0
VERTEX
  5
643
  8
001
 10
169.96842899999999
 20
174.432188
 30
0.0
 42
1.0
  0
SEQEND
  5
641
  8
001
  0
POLYLINE
  5
644
  8
001
 66
     1
 10
0.0
 20
0.0
 30
0.0
  0
VERTEX
  5
646
  8
001
 10
170.21842899999999
 20
174.432188
 30
0.0
  0
VERTEX
  5
647
  8
001
 10
183.98842300000001
 20
204.13217499999999
 30
0.0
  0
VERTEX
  5
648
  8
001
 10
215.98842300000001
 20
204.13217499999999
 30
0.0
  0
SEQEND
  5
645
  8
001
  0
ENDBLK
  5
63E
  8
0
  0
BLOCK
  8
0
  2
DIM-60
 70
     0
 10
0.0
 20
0.0
 30
0.0
  3
DIM-60
  1

  0
TEXT
  5
64C
  8
001
 10
107.9546
 20
164.13691399999999
 30
0.0
 40
4.0
  1
モーター（内蔵）
 41
0.833333
  0
POLYLINE
  5
64D
  8
001
 66
     1
 10
0.0
 20
0.0
 30
0.0
 70
     1
 40
0.5
 41
0.5
  0
VERTEX
  5
64F
  8
001
 10
155.39280600000001
 20
153.74531300000001
 30
0.0
 42
1.0
  0
VERTEX
  5
650
  8
001
 10
154.89280600000001
 20
153.74531300000001
 30
0.0
 42
1.0
  0
SEQEND
  5
64E
  8
001
  0
POLYLINE
  5
651
  8
001
 66
     1
 10
0.0
 20
0.0
 30
0.0
  0
VERTEX
  5
653
  8
001
 10
155.14280600000001
 20
153.74531300000001
 30
0.0
  0
VERTEX
  5
654
  8
001
 10
141.9546
 20
163.13691399999999
 30
0.0
  0
VERTEX
  5
655
  8
001
 10
105.9546
 20
163.13691399999999
 30
0.0
  0
SEQEND
  5
652
  8
001
  0
ENDBLK
  5
64B
  8
0
  0
BLOCK
  8
0
  2
DIM-61
 70
     0
 10
0.0
 20
0.0
 30
0.0
  3
DIM-61
  1

  0
TEXT
  5
659
  8
001
 10
204.85483099999999
 20
192.87697199999999
 30
0.0
 40
4.0
  1
ボディ
 41
0.833333
  0
POLYLINE
  5
65A
  8
001
 66
     1
 10
0.0
 20
0.0
 30
0.0
 70
     1
 40
0.5
 41
0.5
  0
VERTEX
  5
65C
  8
001
 10
182.273539
 20
154.995341
 30
0.0
 42
1.0
  0
VERTEX
  5
65D
  8
001
 10
181.773539
 20
154.995341
 30
0.0
 42
1.0
  0
SEQEND
  5
65B
  8
001
  0
POLYLINE
  5
65E
  8
001
 66
     1
 10
0.0
 20
0.0
 30
0.0
  0
VERTEX
  5
660
  8
001
 10
182.023539
 20
154.995341
 30
0.0
  0
VERTEX
  5
661
  8
001
 10
202.85483099999999
 20
191.87697199999999
 30
0.0
  0
VERTEX
  5
662
  8
001
 10
218.85483099999999
 20
191.87697199999999
 30
0.0
  0
SEQEND
  5
65F
  8
001
  0
ENDBLK
  5
658
  8
0
  0
BLOCK
  8
0
  2
DIM-62
 70
     0
 10
0.0
 20
0.0
 30
0.0
  3
DIM-62
  1

  0
TEXT
  5
666
  8
001
 10
353.47699
 20
192.36658600000001
 30
0.0
 40
4.0
  1
固定ノブ
 41
0.833333
  0
POLYLINE
  5
667
  8
001
 66
     1
 10
0.0
 20
0.0
 30
0.0
 70
     1
 40
0.5
 41
0.5
  0
VERTEX
  5
669
  8
001
 10
338.57994400000001
 20
164.41377800000001
 30
0.0
 42
1.0
  0
VERTEX
  5
66A
  8
001
 10
338.07994400000001
 20
164.41377800000001
 30
0.0
 42
1.0
  0
SEQEND
  5
668
  8
001
  0
POLYLINE
  5
66B
  8
001
 66
     1
 10
0.0
 20
0.0
 30
0.0
  0
VERTEX
  5
66D
  8
001
 10
338.32994400000001
 20
164.41377800000001
 30
0.0
  0
VERTEX
  5
66E
  8
001
 10
351.47699
 20
191.36658600000001
 30
0.0
  0
VERTEX
  5
66F
  8
001
 10
371.47699
 20
191.36658600000001
 30
0.0
  0
SEQEND
  5
66C
  8
001
  0
ENDBLK
  5
665
  8
0
  0
BLOCK
  8
0
  2
DIM-63
 70
     0
 10
0.0
 20
0.0
 30
0.0
  3
DIM-63
  1

  0
TEXT
  5
673
  8
001
 10
368.51058599999999
 20
163.16339400000001
 30
0.0
 40
4.0
  1
調整ツマミ
 41
0.833333
  0
POLYLINE
  5
674
  8
001
 66
     1
 10
0.0
 20
0.0
 30
0.0
 70
     1
 40
0.5
 41
0.5
  0
VERTEX
  5
676
  8
001
 10
342.22299299999997
 20
145.920199
 30
0.0
 42
1.0
  0
VERTEX
  5
677
  8
001
 10
341.72299299999997
 20
145.920199
 30
0.0
 42
1.0
  0
SEQEND
  5
675
  8
001
  0
POLYLINE
  5
678
  8
001
 66
     1
 10
0.0
 20
0.0
 30
0.0
  0
VERTEX
  5
67A
  8
001
 10
341.97299299999997
 20
145.920199
 30
0.0
  0
VERTEX
  5
67B
  8
001
 10
366.51058599999999
 20
162.16339400000001
 30
0.0
  0
VERTEX
  5
67C
  8
001
 10
390.51058599999999
 20
162.16339400000001
 30
0.0
  0
SEQEND
  5
679
  8
001
  0
ENDBLK
  5
672
  8
0
  0
BLOCK
  8
0
  2
DIM-64
 70
     0
 10
0.0
 20
0.0
 30
0.0
  3
DIM-64
  1

  0
TEXT
  5
680
  8
001
 10
119.178477
 20
183.92585
 30
0.0
 40
4.0
  1
つまみ
 41
0.833333
  0
POLYLINE
  5
681
  8
001
 66
     1
 10
0.0
 20
0.0
 30
0.0
 70
     1
 40
0.5
 41
0.5
  0
VERTEX
  5
683
  8
001
 10
152.672146
 20
170.424902
 30
0.0
 42
1.0
  0
VERTEX
  5
684
  8
001
 10
152.172146
 20
170.424902
 30
0.0
 42
1.0
  0
SEQEND
  5
682
  8
001
  0
POLYLINE
  5
685
  8
001
 66
     1
 10
0.0
 20
0.0
 30
0.0
  0
VERTEX
  5
687
  8
001
 10
152.422146
 20
170.424902
 30
0.0
  0
VERTEX
  5
688
  8
001
 10
133.17847699999999
 20
182.92585
 30
0.0
  0
VERTEX
  5
689
  8
001
 10
117.178477
 20
182.92585
 30
0.0
  0
SEQEND
  5
686
  8
001
  0
ENDBLK
  5
67F
  8
0
  0
BLOCK
  8
0
  2
DIM-65
 70
     0
 10
0.0
 20
0.0
 30
0.0
  3
DIM-65
  1

  0
TEXT
  5
68D
  8
001
 10
129.490916
 20
207.34617399999999
 30
0.0
 40
4.0
  1
ガイド板
 41
0.833333
  0
POLYLINE
  5
68E
  8
001
 66
     1
 10
0.0
 20
0.0
 30
0.0
 70
     1
 40
0.5
 41
0.5
  0
VERTEX
  5
690
  8
001
 10
153.13227499999999
 20
182.878758
 30
0.0
 42
1.0
  0
VERTEX
  5
691
  8
001
 10
152.63227499999999
 20
182.878758
 30
0.0
 42
1.0
  0
SEQEND
  5
68F
  8
001
  0
POLYLINE
  5
692
  8
001
 66
     1
 10
0.0
 20
0.0
 30
0.0
  0
VERTEX
  5
694
  8
001
 10
152.88227499999999
 20
182.878758
 30
0.0
  0
VERTEX
  5
695
  8
001
 10
147.490916
 20
206.34617399999999
 30
0.0
  0
VERTEX
  5
696
  8
001
 10
127.490916
 20
206.34617399999999
 30
0.0
  0
SEQEND
  5
693
  8
001
  0
ENDBLK
  5
68C
  8
0
  0
BLOCK
  8
0
  2
*D73
 70
     1
 10
0.0
 20
0.0
 30
0.0
  3
*D73
  1

  0
LINE
  5
158E
  8
0
 62
     0
 10
910.87506499999995
 20
871.01879000000008
 30
0.0
 11
910.87506499999995
 21
896.05773018393984
 31
0.0
  0
LINE
  5
158F
  8
0
 62
     0
 10
661.87506499999995
 20
871.01879000000008
 30
0.0
 11
661.87506499999995
 21
896.05773018393984
 31
0.0
  0
LINE
  5
1590
  8
0
 62
     0
 10
908.37506499999984
 20
894.80773018393995
 30
0.0
 11
790.33339833333332
 21
894.80773018393995
 31
0.0
  0
LINE
  5
1591
  8
0
 62
     0
 10
664.37506499999995
 20
894.80773018393995
 30
0.0
 11
782.41673166666658
 21
894.80773018393995
 31
0.0
  0
SOLID
  5
1592
  8
0
 62
     0
 10
908.37506499999984
 20
895.22439685060647
 30
0.0
 11
908.37506499999984
 21
894.39106351727321
 31
0.0
 12
910.87506499999995
 22
894.80773018393995
 32
0.0
 13
910.87506499999995
 23
894.80773018393995
 33
0.0
  0
SOLID
  5
1593
  8
0
 62
     0
 10
664.37506499999995
 20
895.22439685060647
 30
0.0
 11
664.37506499999995
 21
894.39106351727321
 31
0.0
 12
661.87506499999995
 22
894.80773018393995
 32
0.0
 13
661.87506499999995
 23
894.80773018393995
 33
0.0
  0
INSERT
  5
1594
  8
0
  2
*U81
 10
0.0
 20
0.0
 30
0.0
  0
POINT
  5
1595
  8
DEFPOINTS
 62
     0
 10
910.87506499999995
 20
870.39379000000008
 30
0.0
  0
POINT
  5
1596
  8
DEFPOINTS
 62
     0
 10
661.87506499999995
 20
870.39379000000008
 30
0.0
  0
POINT
  5
1597
  8
DEFPOINTS
 62
     0
 10
661.87506499999995
 20
894.80773018393995
 30
0.0
  0
ENDBLK
  5
1599
  8
0
  0
BLOCK
  8
0
  2
*U74
 70
     1
 10
0.0
 20
0.0
 30
0.0
  3
*U74
  1

  0
TEXT
  5
15AA
  8
001
 62
     0
 10
339.25610333333327
 20
943.33946999999989
 30
0.0
 40
4.0
  1
230.7
  0
ENDBLK
  5
15AC
  8
0
  0
BLOCK
  8
0
  2
*U75
 70
     1
 10
0.0
 20
0.0
 30
0.0
  3
*U75
  1

  0
TEXT
  5
15AE
  8
001
 62
     0
 10
781.70839833333332
 20
504.42528499999997
 30
0.0
 40
4.0
  1
216
  0
ENDBLK
  5
15B0
  8
0
  0
BLOCK
  8
0
  2
*U76
 70
     1
 10
0.0
 20
0.0
 30
0.0
  3
*U76
  1

  0
TEXT
  5
15B2
  8
001
 62
     0
 10
951.52203999999995
 20
663.66889000000003
 30
0.0
 40
4.0
  1
257.2
 50
90.0
  0
ENDBLK
  5
15B4
  8
0
  0
BLOCK
  8
0
  2
*U77
 70
     1
 10
0.0
 20
0.0
 30
0.0
  3
*U77
  1

  0
TEXT
  5
15B6
  8
001
 62
     0
 10
999.04203499999994
 20
698.73133999999993
 30
0.0
 40
4.0
  1
327.3
 50
90.0
  0
ENDBLK
  5
15B8
  8
0
  0
BLOCK
  8
0
  2
*U78
 70
     1
 10
0.0
 20
0.0
 30
0.0
  3
*U78
  1

  0
TEXT
  5
15BA
  8
001
 62
     0
 10
781.37506499999995
 20
949.63345500000003
 30
0.0
 40
4.0
  1
250
  0
ENDBLK
  5
15BC
  8
0
  0
BLOCK
  8
0
  2
*U79
 70
     1
 10
0.0
 20
0.0
 30
0.0
  3
*U79
  1

  0
TEXT
  5
15BE
  8
001
 62
     0
 10
1093.3654449999999
 20
587.02004166666666
 30
0.0
 40
4.0
  1
89
 50
90.0
  0
ENDBLK
  5
15C0
  8
0
  0
BLOCK
  8
0
  2
*U80
 70
     1
 10
0.0
 20
0.0
 30
0.0
  3
*U80
  1

  0
TEXT
  5
15C2
  8
001
 62
     0
 10
1294.4828516666671
 20
1021.764765
 30
0.0
 40
4.0
  1
107
  0
ENDBLK
  5
15C4
  8
0
  0
BLOCK
  8
0
  2
*U81
 70
     1
 10
0.0
 20
0.0
 30
0.0
  3
*U81
  1

  0
TEXT
  5
15C6
  8
0
 62
     0
 10
783.04173166666646
 20
893.55773018393984
 30
0.0
 40
2.5
  1
249
  0
ENDBLK
  5
15C8
  8
0
  0
ENDSEC
  0
SECTION
  2
ENTITIES
  0
INSERT
  5
697
  8
001
  6
BYBLOCK
 62
     0
  2
JZB-1
 10
-48.0
 20
-44.0
 30
0.0
 41
5.0
 42
5.0
 43
5.0
  0
INSERT
  5
698
  8
001
  6
BYBLOCK
 62
     0
  2
JZB-2
 10
-48.0
 20
-44.0
 30
0.0
 41
5.0
 42
5.0
 43
5.0
  0
INSERT
  5
699
  8
001
  6
BYBLOCK
 62
     0
  2
JZB-3
 10
-48.0
 20
-44.0
 30
0.0
 41
5.0
 42
5.0
 43
5.0
  0
INSERT
  5
69A
  8
001
  6
BYBLOCK
 62
     0
  2
JZB-4
 10
-48.0
 20
-44.0
 30
0.0
 41
5.0
 42
5.0
 43
5.0
  0
INSERT
  5
69B
  8
001
  6
BYBLOCK
 62
     0
  2
JZB-5
 10
-48.0
 20
-44.0
 30
0.0
 41
5.0
 42
5.0
 43
5.0
  0
INSERT
  5
69C
  8
001
  6
BYBLOCK
 62
     0
  2
JZB-6
 10
-48.0
 20
-44.0
 30
0.0
 41
5.0
 42
5.0
 43
5.0
  0
INSERT
  5
69D
  8
001
  6
BYBLOCK
 62
     0
  2
V-7
 10
-48.0
 20
-44.0
 30
0.0
 41
5.0
 42
5.0
 43
5.0
  0
INSERT
  5
69E
  8
001
  6
BYBLOCK
 62
     0
  2
V-8
 10
-48.0
 20
-44.0
 30
0.0
 41
5.0
 42
5.0
 43
5.0
  0
INSERT
  5
69F
  8
001
  6
BYBLOCK
 62
     0
  2
JZB-9
 10
-48.0
 20
-44.0
 30
0.0
 41
5.0
 42
5.0
 43
5.0
  0
INSERT
  5
6A0
  8
001
  6
BYBLOCK
 62
     0
  2
JZB-10
 10
-48.0
 20
-44.0
 30
0.0
 41
5.0
 42
5.0
 43
5.0
  0
INSERT
  5
6A1
  8
001
  6
BYBLOCK
 62
     0
  2
JZB-11
 10
-48.0
 20
-44.0
 30
0.0
 41
5.0
 42
5.0
 43
5.0
  0
INSERT
  5
6A2
  8
001
  6
BYBLOCK
 62
     0
  2
JZB-12
 10
-48.0
 20
-44.0
 30
0.0
 41
5.0
 42
5.0
 43
5.0
  0
INSERT
  5
6A3
  8
001
  6
BYBLOCK
 62
     0
  2
JZB-13
 10
-48.0
 20
-44.0
 30
0.0
 41
5.0
 42
5.0
 43
5.0
  0
INSERT
  5
6A4
  8
001
  6
BYBLOCK
 62
     0
  2
JZB-14
 10
-48.0
 20
-44.0
 30
0.0
 41
5.0
 42
5.0
 43
5.0
  0
INSERT
  5
6A5
  8
001
  6
BYBLOCK
 62
     0
  2
V-15
 10
-48.0
 20
-44.0
 30
0.0
 41
5.0
 42
5.0
 43
5.0
  0
INSERT
  5
6A6
  8
001
  6
BYBLOCK
 62
     0
  2
JZB-16
 10
-48.0
 20
-44.0
 30
0.0
 41
5.0
 42
5.0
 43
5.0
  0
INSERT
  5
6A7
  8
001
  6
BYBLOCK
 62
     0
  2
JZB-17
 10
-48.0
 20
-44.0
 30
0.0
 41
5.0
 42
5.0
 43
5.0
  0
INSERT
  5
6A8
  8
001
  6
BYBLOCK
 62
     0
  2
L-18
 10
-48.0
 20
-44.0
 30
0.0
 41
5.0
 42
5.0
 43
5.0
  0
INSERT
  5
6A9
  8
001
  6
BYBLOCK
 62
     0
  2
JZB-19
 10
-48.0
 20
-44.0
 30
0.0
 41
5.0
 42
5.0
 43
5.0
  0
INSERT
  5
6AA
  8
001
  6
BYBLOCK
 62
     0
  2
JZB-20
 10
-48.0
 20
-44.0
 30
0.0
 41
5.0
 42
5.0
 43
5.0
  0
INSERT
  5
6AB
  8
001
  6
BYBLOCK
 62
     0
  2
JZB-21
 10
-48.0
 20
-44.0
 30
0.0
 41
5.0
 42
5.0
 43
5.0
  0
INSERT
  5
6AC
  8
001
  6
BYBLOCK
 62
     0
  2
JZB-22
 10
-48.0
 20
-44.0
 30
0.0
 41
5.0
 42
5.0
 43
5.0
  0
INSERT
  5
6AD
  8
001
  6
BYBLOCK
 62
     0
  2
JZB-23
 10
-48.0
 20
-44.0
 30
0.0
 41
5.0
 42
5.0
 43
5.0
  0
INSERT
  5
6AE
  8
001
  6
BYBLOCK
 62
     0
  2
JZB-24
 10
-48.0
 20
-44.0
 30
0.0
 41
5.0
 42
5.0
 43
5.0
  0
INSERT
  5
6AF
  8
001
  6
BYBLOCK
 62
     0
  2
V-25
 10
-48.0
 20
-44.0
 30
0.0
 41
5.0
 42
5.0
 43
5.0
  0
INSERT
  5
6B0
  8
001
  6
BYBLOCK
 62
     0
  2
V-26
 10
-48.0
 20
-44.0
 30
0.0
 41
5.0
 42
5.0
 43
5.0
  0
INSERT
  5
6B1
  8
001
  6
BYBLOCK
 62
     0
  2
JZB-27
 10
-48.0
 20
-44.0
 30
0.0
 41
5.0
 42
5.0
 43
5.0
  0
INSERT
  5
6B2
  8
001
  6
BYBLOCK
 62
     0
  2
JZB-28
 10
-48.0
 20
-44.0
 30
0.0
 41
5.0
 42
5.0
 43
5.0
  0
INSERT
  5
6B3
  8
001
  6
BYBLOCK
 62
     0
  2
JZB-29
 10
-48.0
 20
-44.0
 30
0.0
 41
5.0
 42
5.0
 43
5.0
  0
INSERT
  5
6B4
  8
001
  6
BYBLOCK
 62
     0
  2
JZB-30
 10
-48.0
 20
-44.0
 30
0.0
 41
5.0
 42
5.0
 43
5.0
  0
INSERT
  5
6B5
  8
001
  6
BYBLOCK
 62
     0
  2
JZB-31
 10
-48.0
 20
-44.0
 30
0.0
 41
5.0
 42
5.0
 43
5.0
  0
INSERT
  5
6B6
  8
001
  6
BYBLOCK
 62
     0
  2
JZB-32
 10
-48.0
 20
-44.0
 30
0.0
 41
5.0
 42
5.0
 43
5.0
  0
INSERT
  5
6B7
  8
001
  6
BYBLOCK
 62
     0
  2
JZB-33
 10
-48.0
 20
-44.0
 30
0.0
 41
5.0
 42
5.0
 43
5.0
  0
INSERT
  5
6B8
  8
001
  6
BYBLOCK
 62
     0
  2
JZB-34
 10
-48.0
 20
-44.0
 30
0.0
 41
5.0
 42
5.0
 43
5.0
  0
INSERT
  5
6B9
  8
001
  6
BYBLOCK
 62
     0
  2
JZB-35
 10
-48.0
 20
-44.0
 30
0.0
 41
5.0
 42
5.0
 43
5.0
  0
INSERT
  5
6BA
  8
001
  6
BYBLOCK
 62
     0
  2
JZB-36
 10
-48.0
 20
-44.0
 30
0.0
 41
5.0
 42
5.0
 43
5.0
  0
INSERT
  5
6BB
  8
001
  6
BYBLOCK
 62
     0
  2
V-37
 10
-48.0
 20
-44.0
 30
0.0
 41
5.0
 42
5.0
 43
5.0
  0
INSERT
  5
6BC
  8
001
  6
BYBLOCK
 62
     0
  2
JZB-38
 10
-48.0
 20
-44.0
 30
0.0
 41
5.0
 42
5.0
 43
5.0
  0
INSERT
  5
6BD
  8
001
  6
BYBLOCK
 62
     0
  2
L-39
 10
-48.0
 20
-44.0
 30
0.0
 41
5.0
 42
5.0
 43
5.0
  0
INSERT
  5
6C8
  8
001
  6
BYBLOCK
 62
     0
  2
MEMORI-50
 10
-48.0
 20
-44.0
 30
0.0
 41
5.0
 42
5.0
 43
5.0
  0
INSERT
  5
6C9
  8
001
  6
BYBLOCK
 62
     0
  2
MEMORI1-51
 10
-48.0
 20
-44.0
 30
0.0
 41
5.0
 42
5.0
 43
5.0
  0
INSERT
  5
6CA
  8
001
  6
BYBLOCK
 62
     0
  2
MEMORI2-52
 10
-48.0
 20
-44.0
 30
0.0
 41
5.0
 42
5.0
 43
5.0
  0
INSERT
  5
6CB
  8
001
  6
BYBLOCK
 62
     0
  2
MEMORI3-53
 10
-48.0
 20
-44.0
 30
0.0
 41
5.0
 42
5.0
 43
5.0
  0
LINE
  5
109D
  8
001
 62
   253
 10
777.37506499999995
 20
1257.843355
 30
0.0
 11
777.37506499999995
 21
1256.343355
 31
0.0
  0
LINE
  5
109E
  8
001
 62
   253
 10
795.37506499999995
 20
1256.343355
 30
0.0
 11
795.37506499999995
 21
1257.843355
 31
0.0
  0
LINE
  5
109F
  8
001
 62
   253
 10
795.37506499999995
 20
1257.843355
 30
0.0
 11
777.37506499999995
 21
1257.843355
 31
0.0
  0
LINE
  5
10A0
  8
001
 62
   253
 10
802.30195000000003
 20
1152.1083249999999
 30
0.0
 11
802.75199499999997
 21
1151.5927650000001
 31
0.0
  0
LINE
  5
10A1
  8
001
 62
   253
 10
803.55004499999995
 20
1152.1083249999999
 30
0.0
 11
802.75199499999997
 21
1151.5927650000001
 31
0.0
  0
LINE
  5
10A2
  8
001
 62
   253
 10
802.27363000000003
 20
1150.7642149999999
 30
0.0
 11
802.75199499999997
 21
1151.5927650000001
 31
0.0
  0
LINE
  5
10A3
  8
001
 62
   253
 10
802.27363000000003
 20
1150.7642149999999
 30
0.0
 11
801.97504500000002
 21
1150.822895
 31
0.0
  0
LINE
  5
10A4
  8
001
 62
   253
 10
804.24289999999996
 20
1152.1083249999999
 30
0.0
 11
802.27363000000003
 21
1150.7642149999999
 31
0.0
  0
LINE
  5
10A5
  8
001
 62
   253
 10
774.43116999999995
 20
1152.1083249999999
 30
0.0
 11
776.16109499999993
 21
1149.5954650000001
 31
0.0
  0
LINE
  5
10A6
  8
001
 62
   253
 10
769.53404
 20
1148.293095
 30
0.0
 11
769.34321499999976
 21
1152.1083249999999
 31
0.0
  0
LINE
  5
10A7
  8
001
 62
   253
 10
776.16109499999993
 20
1149.5954650000001
 30
0.0
 11
769.53404
 21
1148.293095
 31
0.0
  0
LINE
  5
10A8
  8
001
 62
   253
 10
777.204385
 20
1152.1083249999999
 30
0.0
 11
777.91776499999992
 21
1150.60968
 31
0.0
  0
LINE
  5
10A9
  8
001
 62
   253
 10
778.79404
 20
1151.6135200000001
 30
0.0
 11
777.91776499999992
 21
1150.60968
 31
0.0
  0
LINE
  5
10AA
  8
001
 62
   253
 10
777.91776499999992
 20
1150.60968
 30
0.0
 11
776.16109499999993
 21
1149.5954650000001
 31
0.0
  0
LINE
  5
10AB
  8
001
 62
   253
 10
769.18715999999995
 20
1148.89391
 30
0.0
 11
768.94460499999991
 21
1152.1083249999999
 31
0.0
  0
LINE
  5
10AC
  8
001
 62
   253
 10
769.53404
 20
1148.293095
 30
0.0
 11
769.18715999999995
 21
1148.89391
 31
0.0
  0
ARC
  5
10AD
  8
001
 62
   134
 10
786.37506499999995
 20
1161.843355
 30
0.0
 40
15.24999970108715
 50
280.71541300000001
 51
320.330172
  0
LINE
  5
10AE
  8
001
 62
   134
 10
778.25253499999997
 20
1151.3008850000001
 30
0.0
 11
779.6510649999999
 21
1152.1083249999999
 31
0.0
  0
LINE
  5
10AF
  8
001
 62
   134
 10
778.25253499999997
 20
1151.3008850000001
 30
0.0
 11
777.77108999999984
 21
1152.1083249999999
 31
0.0
  0
LINE
  5
10B0
  8
001
 62
   134
 10
802.54617000000007
 20
1151.679435
 30
0.0
 11
802.17464000000007
 21
1152.107745
 31
0.0
  0
ARC
  5
10B1
  8
001
 62
   134
 10
786.37506499999995
 20
1161.843355
 30
0.0
 40
19.1000000000071
 50
306.94497100000001
 51
327.849672
  0
POLYLINE
  5
10B2
  8
001
 62
   134
 66
     1
 10
0.0
 20
0.0
 30
0.0
  0
VERTEX
  5
10B4
  8
001
 62
   134
 10
795.09438999999986
 20
1148.21929
 30
0.0
  0
VERTEX
  5
10B5
  8
001
 62
   134
 10
794.70054000000005
 20
1148.141725
 30
0.0
  0
VERTEX
  5
10B6
  8
001
 62
   134
 10
794.31253500000003
 20
1148.0448249999999
 30
0.0
  0
VERTEX
  5
10B7
  8
001
 62
   134
 10
793.69140500000003
 20
1147.80934
 30
0.0
  0
VERTEX
  5
10B8
  8
001
 62
   134
 10
793.09793000000013
 20
1147.5009299999999
 30
0.0
  0
VERTEX
  5
10B9
  8
001
 62
   134
 10
792.53114500000004
 20
1147.14293
 30
0.0
  0
VERTEX
  5
10BA
  8
001
 62
   134
 10
792.01396499999998
 20
1146.7226499999999
 30
0.0
  0
VERTEX
  5
10BB
  8
001
 62
   134
 10
791.94388500000002
 20
1146.65471
 30
0.0
  0
VERTEX
  5
10BC
  8
001
 62
   134
 10
791.87461499999995
 20
1146.5858599999999
 30
0.0
  0
SEQEND
  5
10B3
  8
001
  0
LINE
  5
10BD
  8
001
 62
   134
 10
786.17997000000003
 20
1152.1083249999999
 30
0.0
 11
789.373155
 21
1146.5775599999999
 31
0.0
  0
POLYLINE
  5
10BE
  8
001
 62
   134
 66
     1
 10
0.0
 20
0.0
 30
0.0
  0
VERTEX
  5
10C0
  8
001
 62
   134
 10
795.7504100000001
 20
1146.8713600000001
 30
0.0
  0
VERTEX
  5
10C1
  8
001
 62
   134
 10
795.77052500000002
 20
1146.90696
 30
0.0
  0
VERTEX
  5
10C2
  8
001
 62
   134
 10
795.79037499999993
 20
1146.9427350000001
 30
0.0
  0
VERTEX
  5
10C3
  8
001
 62
   134
 10
795.89952500000004
 20
1147.1709000000001
 30
0.0
  0
VERTEX
  5
10C4
  8
001
 62
   134
 10
795.97718499999996
 20
1147.41185
 30
0.0
  0
VERTEX
  5
10C5
  8
001
 62
   134
 10
796.00395500000002
 20
1147.5729200000001
 30
0.0
  0
VERTEX
  5
10C6
  8
001
 62
   134
 10
796.00208999999995
 20
1147.7357099999999
 30
0.0
  0
VERTEX
  5
10C7
  8
001
 62
   134
 10
795.97711500000003
 20
1147.850565
 30
0.0
  0
VERTEX
  5
10C8
  8
001
 62
   134
 10
795.92842499999995
 20
1147.9568099999999
 30
0.0
  0
VERTEX
  5
10C9
  8
001
 62
   134
 10
795.85495499999979
 20
1148.0471250000001
 30
0.0
  0
VERTEX
  5
10CA
  8
001
 62
   134
 10
795.76223499999992
 20
1148.118455
 30
0.0
  0
VERTEX
  5
10CB
  8
001
 62
   134
 10
795.65593999999976
 20
1148.169525
 30
0.0
  0
VERTEX
  5
10CC
  8
001
 62
   134
 10
795.54270499999996
 20
1148.2017699999999
 30
0.0
  0
VERTEX
  5
10CD
  8
001
 62
   134
 10
795.32020999999986
 20
1148.224455
 30
0.0
  0
VERTEX
  5
10CE
  8
001
 62
   134
 10
795.09438999999986
 20
1148.21929
 30
0.0
  0
SEQEND
  5
10BF
  8
001
  0
LINE
  5
10CF
  8
001
 62
   134
 10
795.55046500000003
 20
1146.5674100000001
 30
0.0
 11
795.7504100000001
 21
1146.8713600000001
 31
0.0
  0
ARC
  5
10D0
  8
001
 62
   134
 10
786.37506499999995
 20
1161.843355
 30
0.0
 40
19.1000000000071
 50
222.860218
 51
233.05502899999999
  0
LINE
  5
10D1
  8
001
 62
   253
 10
816.37506499999984
 20
1275.343355
 30
0.0
 11
803.51031999999998
 21
1275.343355
 31
0.0
  0
LINE
  5
10D2
  8
001
 62
   253
 10
766.37506499999995
 20
1275.343355
 30
0.0
 11
756.37506499999995
 21
1275.343355
 31
0.0
  0
LINE
  5
10D3
  8
001
 62
   253
 10
756.37506499999995
 20
1257.343355
 30
0.0
 11
777.37506499999995
 21
1257.343355
 31
0.0
  0
LINE
  5
10D4
  8
001
 62
   253
 10
756.37506499999995
 20
1275.343355
 30
0.0
 11
756.37506499999995
 21
1257.343355
 31
0.0
  0
LINE
  5
10D5
  8
001
 62
   253
 10
816.37506499999984
 20
1257.343355
 30
0.0
 11
816.37506499999984
 21
1275.343355
 31
0.0
  0
LINE
  5
10D6
  8
001
 62
   253
 10
795.37506499999995
 20
1257.343355
 30
0.0
 11
816.37506499999984
 21
1257.343355
 31
0.0
  0
LINE
  5
10D7
  8
001
 62
   253
 10
757.37506499999995
 20
1276.343355
 30
0.0
 11
766.37506499999995
 21
1276.343355
 31
0.0
  0
LINE
  5
10D8
  8
001
 62
   253
 10
803.51031999999998
 20
1276.343355
 30
0.0
 11
815.37506499999995
 21
1276.343355
 31
0.0
  0
LINE
  5
10D9
  8
001
 62
   253
 10
816.37506499999984
 20
1275.343355
 30
0.0
 11
815.37506499999995
 21
1276.343355
 31
0.0
  0
LINE
  5
10DA
  8
001
 62
   253
 10
757.37506499999995
 20
1276.343355
 30
0.0
 11
756.37506499999995
 21
1275.343355
 31
0.0
  0
LINE
  5
10DB
  8
001
 62
   253
 10
756.37506499999995
 20
1257.343355
 30
0.0
 11
756.87506499999995
 21
1256.843355
 31
0.0
  0
LINE
  5
10DC
  8
001
 62
   253
 10
815.87506499999995
 20
1256.843355
 30
0.0
 11
816.37506499999984
 21
1257.343355
 31
0.0
  0
LINE
  5
10DD
  8
001
 62
     5
 10
773.37506499999995
 20
1284.843355
 30
0.0
 11
799.37506499999995
 21
1284.843355
 31
0.0
  0
ARC
  5
10DE
  8
001
 62
     5
 10
792.87506499999995
 20
1214.343355
 30
0.0
 40
70.79901129253345
 50
83.811537999999985
 51
84.732303000000002
  0
ARC
  5
10DF
  8
001
 62
     5
 10
779.87506499999995
 20
1214.343355
 30
0.0
 40
70.79901129253345
 50
95.267696999999998
 51
100.279931
  0
ARC
  5
10E0
  8
001
 62
     5
 10
802.51031999999975
 20
1273.843355
 30
0.0
 40
1.0
 50
270.0
 51
0.0
  0
POLYLINE
  5
10E1
  8
001
 62
     5
 66
     1
 10
0.0
 20
0.0
 30
0.0
  0
VERTEX
  5
10E3
  8
001
 62
     5
 10
803.51031499999988
 20
1283.1251050000001
 30
0.0
  0
VERTEX
  5
10E4
  8
001
 62
     5
 10
803.50877500000001
 20
1283.17048
 30
0.0
  0
VERTEX
  5
10E5
  8
001
 62
     5
 10
803.50609499999996
 20
1283.2157999999999
 30
0.0
  0
VERTEX
  5
10E6
  8
001
 62
     5
 10
803.47554500000001
 20
1283.3896950000001
 30
0.0
  0
VERTEX
  5
10E7
  8
001
 62
     5
 10
803.41469000000006
 20
1283.556075
 30
0.0
  0
VERTEX
  5
10E8
  8
001
 62
     5
 10
803.34629500000005
 20
1283.680695
 30
0.0
  0
VERTEX
  5
10E9
  8
001
 62
     5
 10
803.26213500000006
 20
1283.7949000000001
 30
0.0
  0
VERTEX
  5
10EA
  8
001
 62
     5
 10
803.18077999999991
 20
1283.8811250000001
 30
0.0
  0
VERTEX
  5
10EB
  8
001
 62
     5
 10
803.09077999999988
 20
1283.9583
 30
0.0
  0
VERTEX
  5
10EC
  8
001
 62
     5
 10
803.00594499999988
 20
1284.01819
 30
0.0
  0
VERTEX
  5
10ED
  8
001
 62
     5
 10
802.91661999999997
 20
1284.0710899999999
 30
0.0
  0
VERTEX
  5
10EE
  8
001
 62
     5
 10
802.8181249999999
 20
1284.120105
 30
0.0
  0
VERTEX
  5
10EF
  8
001
 62
     5
 10
802.71678500000007
 20
1284.1629949999999
 30
0.0
  0
VERTEX
  5
10F0
  8
001
 62
     5
 10
802.55625999999995
 20
1284.2200800000001
 30
0.0
  0
VERTEX
  5
10F1
  8
001
 62
     5
 10
802.39291999999989
 20
1284.268605
 30
0.0
  0
VERTEX
  5
10F2
  8
001
 62
     5
 10
802.35146499999985
 20
1284.279865
 30
0.0
  0
VERTEX
  5
10F3
  8
001
 62
     5
 10
802.30996999999991
 20
1284.2909500000001
 30
0.0
  0
SEQEND
  5
10E2
  8
001
  0
LINE
  5
10F4
  8
001
 62
     5
 10
793.87506499999995
 20
1257.843355
 30
0.0
 11
793.87506499999995
 21
1272.843355
 31
0.0
  0
LINE
  5
10F5
  8
001
 62
     5
 10
778.87506499999995
 20
1272.843355
 30
0.0
 11
778.87506499999995
 21
1257.843355
 31
0.0
  0
POLYLINE
  5
10F6
  8
001
 62
     5
 66
     1
 10
0.0
 20
0.0
 30
0.0
  0
VERTEX
  5
10F8
  8
001
 62
     5
 10
802.32195999999999
 20
1284.287875
 30
0.0
  0
VERTEX
  5
10F9
  8
001
 62
     5
 10
802.21558999999991
 20
1284.3158100000001
 30
0.0
  0
VERTEX
  5
10FA
  8
001
 62
     5
 10
802.10918000000004
 20
1284.3435999999999
 30
0.0
  0
VERTEX
  5
10FB
  8
001
 62
     5
 10
802.07823499999995
 20
1284.3516400000001
 30
0.0
  0
VERTEX
  5
10FC
  8
001
 62
     5
 10
802.04728499999999
 20
1284.3596649999999
 30
0.0
  0
SEQEND
  5
10F7
  8
001
  0
POLYLINE
  5
10FD
  8
001
 62
     5
 66
     1
 10
0.0
 20
0.0
 30
0.0
  0
VERTEX
  5
10FF
  8
001
 62
     5
 10
800.86879499999998
 20
1284.65085
 30
0.0
  0
VERTEX
  5
1100
  8
001
 62
     5
 10
800.80678
 20
1284.6653100000001
 30
0.0
  0
VERTEX
  5
1101
  8
001
 62
     5
 10
800.74476000000004
 20
1284.67977
 30
0.0
  0
VERTEX
  5
1102
  8
001
 62
     5
 10
800.67696499999977
 20
1284.6955350000001
 30
0.0
  0
VERTEX
  5
1103
  8
001
 62
     5
 10
800.60913500000004
 20
1284.711145
 30
0.0
  0
VERTEX
  5
1104
  8
001
 62
     5
 10
800.59991500000001
 20
1284.71324
 30
0.0
  0
VERTEX
  5
1105
  8
001
 62
     5
 10
800.59068500000001
 20
1284.7152900000001
 30
0.0
  0
VERTEX
  5
1106
  8
001
 62
     5
 10
800.57931499999984
 20
1284.717705
 30
0.0
  0
VERTEX
  5
1107
  8
001
 62
     5
 10
800.56791999999984
 20
1284.7199949999999
 30
0.0
  0
VERTEX
  5
1108
  8
001
 62
     5
 10
800.56042000000002
 20
1284.7214300000001
 30
0.0
  0
VERTEX
  5
1109
  8
001
 62
     5
 10
800.55291
 20
1284.7228
 30
0.0
  0
VERTEX
  5
110A
  8
001
 62
     5
 10
800.53443999999979
 20
1284.7258750000001
 30
0.0
  0
VERTEX
  5
110B
  8
001
 62
     5
 10
800.51593000000003
 20
1284.728715
 30
0.0
  0
SEQEND
  5
10FE
  8
001
  0
POLYLINE
  5
110C
  8
001
 62
     5
 66
     1
 10
0.0
 20
0.0
 30
0.0
  0
VERTEX
  5
110E
  8
001
 62
     5
 10
802.29229499999985
 20
1284.2956899999999
 30
0.0
  0
VERTEX
  5
110F
  8
001
 62
     5
 10
802.1482850000001
 20
1284.333355
 30
0.0
  0
VERTEX
  5
1110
  8
001
 62
     5
 10
802.00422000000003
 20
1284.370805
 30
0.0
  0
VERTEX
  5
1111
  8
001
 62
     5
 10
801.71311500000002
 20
1284.445195
 30
0.0
  0
VERTEX
  5
1112
  8
001
 62
     5
 10
801.42160000000013
 20
1284.517975
 30
0.0
  0
VERTEX
  5
1113
  8
001
 62
     5
 10
801.20372499999996
 20
1284.571265
 30
0.0
  0
VERTEX
  5
1114
  8
001
 62
     5
 10
800.98557499999993
 20
1284.6234099999999
 30
0.0
  0
VERTEX
  5
1115
  8
001
 62
     5
 10
800.84830499999998
 20
1284.65553
 30
0.0
  0
VERTEX
  5
1116
  8
001
 62
     5
 10
800.71096999999986
 20
1284.6873949999999
 30
0.0
  0
VERTEX
  5
1117
  8
001
 62
     5
 10
800.66100500000005
 20
1284.698985
 30
0.0
  0
VERTEX
  5
1118
  8
001
 62
     5
 10
800.61103500000002
 20
1284.7105750000001
 30
0.0
  0
SEQEND
  5
110D
  8
001
  0
ARC
  5
1119
  8
001
 62
     5
 10
767.37506499999995
 20
1273.843355
 30
0.0
 40
1.0
 50
180.0
 51
270.0
  0
LINE
  5
111A
  8
001
 62
     5
 10
802.51031999999975
 20
1272.843355
 30
0.0
 11
767.37506499999995
 21
1272.843355
 31
0.0
  0
POLYLINE
  5
111B
  8
001
 62
     5
 66
     1
 10
0.0
 20
0.0
 30
0.0
  0
VERTEX
  5
111D
  8
001
 62
     5
 10
767.29206499999998
 20
1284.0123000000001
 30
0.0
  0
VERTEX
  5
111E
  8
001
 62
     5
 10
767.26738
 20
1284.00875
 30
0.0
  0
VERTEX
  5
111F
  8
001
 62
     5
 10
767.24269499999991
 20
1284.0052149999999
 30
0.0
  0
VERTEX
  5
1120
  8
001
 62
     5
 10
767.23692500000016
 20
1284.0043899999989
 30
0.0
  0
VERTEX
  5
1121
  8
001
 62
     5
 10
767.23115499999994
 20
1284.003555
 30
0.0
  0
VERTEX
  5
1122
  8
001
 62
     5
 10
767.22584999999981
 20
1284.002765
 30
0.0
  0
VERTEX
  5
1123
  8
001
 62
     5
 10
767.22054500000013
 20
1284.0019500000001
 30
0.0
  0
VERTEX
  5
1124
  8
001
 62
     5
 10
767.20802500000002
 20
1283.99991
 30
0.0
  0
VERTEX
  5
1125
  8
001
 62
     5
 10
767.19553999999994
 20
1283.997705
 30
0.0
  0
VERTEX
  5
1126
  8
001
 62
     5
 10
767.12650499999995
 20
1283.9825450000001
 30
0.0
  0
VERTEX
  5
1127
  8
001
 62
     5
 10
767.05865999999992
 20
1283.96254
 30
0.0
  0
VERTEX
  5
1128
  8
001
 62
     5
 10
766.94464500000004
 20
1283.916545
 30
0.0
  0
VERTEX
  5
1129
  8
001
 62
     5
 10
766.83709999999985
 20
1283.8568049999999
 30
0.0
  0
VERTEX
  5
112A
  8
001
 62
     5
 10
766.68646499999988
 20
1283.7383749999999
 30
0.0
  0
VERTEX
  5
112B
  8
001
 62
     5
 10
766.560205
 20
1283.5933
 30
0.0
  0
VERTEX
  5
112C
  8
001
 62
     5
 10
766.47164499999997
 20
1283.4448299999999
 30
0.0
  0
VERTEX
  5
112D
  8
001
 62
     5
 10
766.41239499999995
 20
1283.2837649999999
 30
0.0
  0
VERTEX
  5
112E
  8
001
 62
     5
 10
766.38897999999995
 20
1283.158375
 30
0.0
  0
VERTEX
  5
112F
  8
001
 62
     5
 10
766.37545999999986
 20
1283.0307949999999
 30
0.0
  0
SEQEND
  5
111C
  8
001
  0
LINE
  5
1130
  8
001
 62
     5
 10
766.37506499999995
 20
1283.02034
 30
0.0
 11
766.37506499999995
 21
1273.843355
 31
0.0
  0
LINE
  5
1131
  8
001
 62
     5
 10
803.51031999999998
 20
1273.843355
 30
0.0
 11
803.51031999999998
 21
1283.1249700000001
 31
0.0
  0
LINE
  5
1132
  8
001
 62
   253
 10
828.37506499999995
 20
1256.843355
 30
0.0
 11
795.37506499999995
 21
1256.843355
 31
0.0
  0
LINE
  5
1133
  8
001
 62
   253
 10
744.37506499999995
 20
1256.843355
 30
0.0
 11
744.37506499999995
 21
1256.343355
 31
0.0
  0
LINE
  5
1134
  8
001
 62
   253
 10
828.37506499999995
 20
1256.343355
 30
0.0
 11
828.37506499999995
 21
1256.843355
 31
0.0
  0
LINE
  5
1135
  8
001
 62
   253
 10
777.37506499999995
 20
1256.843355
 30
0.0
 11
744.37506499999995
 21
1256.843355
 31
0.0
  0
LINE
  5
1136
  8
001
 62
   253
 10
736.37506499999995
 20
1244.343355
 30
0.0
 11
736.37506499999995
 21
1202.334775
 31
0.0
  0
LINE
  5
1137
  8
001
 62
   253
 10
836.37506499999995
 20
1244.343355
 30
0.0
 11
736.37506499999995
 21
1244.343355
 31
0.0
  0
LINE
  5
1138
  8
001
 62
   253
 10
836.37506499999995
 20
1244.343355
 30
0.0
 11
836.37506499999995
 21
1202.334775
 31
0.0
  0
LINE
  5
1139
  8
001
 62
   253
 10
851.37506499999995
 20
1202.334775
 30
0.0
 11
836.37506499999995
 21
1202.334775
 31
0.0
  0
LINE
  5
113A
  8
001
 62
   253
 10
851.37506499999995
 20
1202.334775
 30
0.0
 11
851.37506499999995
 21
1194.81032
 31
0.0
  0
LINE
  5
113B
  8
001
 62
   253
 10
721.37506499999995
 20
1202.334775
 30
0.0
 11
721.37506499999995
 21
1194.81032
 31
0.0
  0
LINE
  5
113C
  8
001
 62
   253
 10
721.37506499999995
 20
1202.334775
 30
0.0
 11
736.37506499999995
 21
1202.334775
 31
0.0
  0
LINE
  5
113D
  8
001
 62
    60
 10
662.37506499999995
 20
1187.739255
 30
0.0
 11
662.37506499999995
 21
1151.843355
 31
0.0
  0
LINE
  5
113E
  8
001
 62
    60
 10
910.37506499999995
 20
1187.739255
 30
0.0
 11
662.37506499999995
 21
1187.739255
 31
0.0
  0
LINE
  5
113F
  8
001
 62
    60
 10
910.37506499999995
 20
1151.843355
 30
0.0
 11
910.37506499999995
 21
1187.739255
 31
0.0
  0
LINE
  5
1140
  8
001
 62
    60
 10
815.92506499999979
 20
1151.843355
 30
0.0
 11
815.92506499999979
 21
1152.1083249999999
 31
0.0
  0
LINE
  5
1141
  8
001
 62
    60
 10
815.92506499999979
 20
1152.1083249999999
 30
0.0
 11
755.9250649999999
 21
1152.1083249999999
 31
0.0
  0
LINE
  5
1142
  8
001
 62
    60
 10
755.9250649999999
 20
1152.1083249999999
 30
0.0
 11
755.9250649999999
 21
1151.843355
 31
0.0
  0
LINE
  5
1143
  8
001
 62
    60
 10
662.37506499999995
 20
1194.81032
 30
0.0
 11
662.37506499999995
 21
1189.1534650000001
 31
0.0
  0
LINE
  5
1144
  8
001
 62
    60
 10
662.37506499999995
 20
1189.1534650000001
 30
0.0
 11
661.87506499999995
 21
1188.4463599999999
 31
0.0
  0
LINE
  5
1145
  8
001
 62
    60
 10
661.87506499999995
 20
1188.4463599999999
 30
0.0
 11
661.37506499999995
 21
1188.4463599999999
 31
0.0
  0
LINE
  5
1146
  8
001
 62
    60
 10
661.37506499999995
 20
1194.1032150000001
 30
0.0
 11
661.87506499999995
 21
1194.81032
 31
0.0
  0
LINE
  5
1147
  8
001
 62
    60
 10
661.87506499999995
 20
1110.24035
 30
0.0
 11
662.37506499999995
 21
1109.5332450000001
 31
0.0
  0
LINE
  5
1148
  8
001
 62
    60
 10
662.37506499999995
 20
1109.5332450000001
 30
0.0
 11
662.37506499999995
 21
1103.8763899999999
 31
0.0
  0
LINE
  5
1149
  8
001
 62
    60
 10
661.87506499999995
 20
1103.8763899999999
 30
0.0
 11
661.37506499999995
 21
1104.5834950000001
 31
0.0
  0
LINE
  5
114A
  8
001
 62
    60
 10
661.37506499999995
 20
1110.24035
 30
0.0
 11
661.87506499999995
 21
1110.24035
 31
0.0
  0
LINE
  5
114B
  8
001
 62
    60
 10
910.87506499999995
 20
1110.24035
 30
0.0
 11
911.37506499999995
 21
1110.24035
 31
0.0
  0
LINE
  5
114C
  8
001
 62
    60
 10
911.37506499999995
 20
1104.5834950000001
 30
0.0
 11
910.87506499999995
 21
1103.8763899999999
 31
0.0
  0
LINE
  5
114D
  8
001
 62
    60
 10
910.37506499999995
 20
1103.8763899999999
 30
0.0
 11
910.37506499999995
 21
1109.5332450000001
 31
0.0
  0
LINE
  5
114E
  8
001
 62
    60
 10
910.37506499999995
 20
1109.5332450000001
 30
0.0
 11
910.87506499999995
 21
1110.24035
 31
0.0
  0
LINE
  5
114F
  8
001
 62
    60
 10
910.87506499999995
 20
1194.81032
 30
0.0
 11
911.37506499999995
 21
1194.1032150000001
 31
0.0
  0
LINE
  5
1150
  8
001
 62
    60
 10
911.37506499999995
 20
1188.4463599999999
 30
0.0
 11
910.87506499999995
 21
1188.4463599999999
 31
0.0
  0
LINE
  5
1151
  8
001
 62
    60
 10
910.87506499999995
 20
1188.4463599999999
 30
0.0
 11
910.37506499999995
 21
1189.1534650000001
 31
0.0
  0
LINE
  5
1152
  8
001
 62
    60
 10
910.37506499999995
 20
1189.1534650000001
 30
0.0
 11
910.37506499999995
 21
1194.81032
 31
0.0
  0
LINE
  5
1153
  8
001
 62
    60
 10
661.87506499999995
 20
1188.4463599999999
 30
0.0
 11
662.37506499999995
 21
1187.739255
 31
0.0
  0
LINE
  5
1154
  8
001
 62
    60
 10
662.37506499999995
 20
1189.1534650000001
 30
0.0
 11
910.37506499999995
 21
1189.1534650000001
 31
0.0
  0
LINE
  5
1155
  8
001
 62
    60
 10
910.37506499999995
 20
1187.739255
 30
0.0
 11
910.87506499999995
 21
1188.4463599999999
 31
0.0
  0
LINE
  5
1156
  8
001
 62
    60
 10
662.37506499999995
 20
1110.947455
 30
0.0
 11
661.87506499999995
 21
1110.24035
 31
0.0
  0
LINE
  5
1157
  8
001
 62
    60
 10
662.37506499999995
 20
1110.947455
 30
0.0
 11
910.37506499999995
 21
1110.947455
 31
0.0
  0
LINE
  5
1158
  8
001
 62
    60
 10
910.87506499999995
 20
1110.24035
 30
0.0
 11
910.37506499999995
 21
1110.947455
 31
0.0
  0
LINE
  5
1159
  8
001
 62
    60
 10
910.37506499999995
 20
1109.5332450000001
 30
0.0
 11
662.37506499999995
 21
1109.5332450000001
 31
0.0
  0
LINE
  5
115A
  8
001
 62
    60
 10
910.37506499999995
 20
1110.947455
 30
0.0
 11
910.37506499999995
 21
1146.843355
 31
0.0
  0
LINE
  5
115B
  8
001
 62
    60
 10
755.9250649999999
 20
1151.843355
 30
0.0
 11
661.37506499999995
 21
1151.843355
 31
0.0
  0
LINE
  5
115C
  8
001
 62
    60
 10
661.87506499999995
 20
1103.8763899999999
 30
0.0
 11
910.87506499999995
 21
1103.8763899999999
 31
0.0
  0
LINE
  5
115D
  8
001
 62
    60
 10
910.87506499999995
 20
1194.81032
 30
0.0
 11
661.87506499999995
 21
1194.81032
 31
0.0
  0
LINE
  5
115E
  8
001
 62
    60
 10
755.9250649999999
 20
1146.578385
 30
0.0
 11
815.92506499999979
 21
1146.578385
 31
0.0
  0
LINE
  5
115F
  8
001
 62
    60
 10
815.92506499999979
 20
1146.578385
 30
0.0
 11
815.92506499999979
 21
1146.843355
 31
0.0
  0
LINE
  5
1160
  8
001
 62
    60
 10
911.37506499999995
 20
1146.843355
 30
0.0
 11
815.92506499999979
 21
1146.843355
 31
0.0
  0
LINE
  5
1161
  8
001
 62
    60
 10
662.37506499999995
 20
1146.843355
 30
0.0
 11
662.37506499999995
 21
1110.947455
 31
0.0
  0
LINE
  5
1162
  8
001
 62
    60
 10
755.9250649999999
 20
1146.843355
 30
0.0
 11
755.9250649999999
 21
1146.578385
 31
0.0
  0
LINE
  5
1163
  8
001
 62
    60
 10
911.37506499999995
 20
1151.843355
 30
0.0
 11
815.92506499999979
 21
1151.843355
 31
0.0
  0
LINE
  5
1164
  8
001
 62
    60
 10
661.37506499999995
 20
1146.843355
 30
0.0
 11
755.9250649999999
 21
1146.843355
 31
0.0
  0
LINE
  5
1165
  8
001
 62
    60
 10
828.37506499999995
 20
1146.843355
 30
0.0
 11
828.37506499999995
 21
1151.843355
 31
0.0
  0
LINE
  5
1166
  8
001
 62
    60
 10
911.37506499999995
 20
1194.1032150000001
 30
0.0
 11
911.37506499999995
 21
1104.5834950000001
 31
0.0
  0
LINE
  5
1167
  8
001
 62
    60
 10
744.37506499999995
 20
1151.843355
 30
0.0
 11
744.37506499999995
 21
1146.843355
 31
0.0
  0
LINE
  5
1168
  8
001
 62
    60
 10
661.37506499999995
 20
1194.1032150000001
 30
0.0
 11
661.37506499999995
 21
1104.5834950000001
 31
0.0
  0
LINE
  5
1169
  8
001
 62
    40
 10
826.37506499999995
 20
1103.8763899999999
 30
0.0
 11
826.37506499999995
 21
1076.5238649999999
 31
0.0
  0
ARC
  5
116A
  8
001
 62
    40
 10
786.37506499999995
 20
1176.843355
 30
0.0
 40
107.9999999999487
 50
248.261539
 51
291.73846099999997
  0
LINE
  5
116B
  8
001
 62
    40
 10
746.37506499999995
 20
1076.5238649999999
 30
0.0
 11
746.37506499999995
 21
1103.8763899999999
 31
0.0
  0
LINE
  5
116C
  8
001
 62
    40
 10
814.77506500000004
 20
1152.1083249999999
 30
0.0
 11
814.77506500000004
 21
1146.578385
 31
0.0
  0
LINE
  5
116D
  8
001
 62
    40
 10
826.37506499999995
 20
1151.843355
 30
0.0
 11
826.37506499999995
 21
1146.843355
 31
0.0
  0
LINE
  5
116E
  8
001
 62
    40
 10
757.97506499999997
 20
1152.1083249999999
 30
0.0
 11
757.97506499999997
 21
1146.578385
 31
0.0
  0
LINE
  5
116F
  8
001
 62
    40
 10
746.37506499999995
 20
1151.843355
 30
0.0
 11
746.37506499999995
 21
1146.843355
 31
0.0
  0
CIRCLE
  5
1170
  8
001
 62
   253
 10
694.68877500000008
 20
1265.5296450000001
 30
0.0
 40
2.0999999999999992
  0
CIRCLE
  5
1171
  8
001
 62
   253
 10
878.06135499999993
 20
1265.5296450000001
 30
0.0
 40
2.0999999999999992
  0
CIRCLE
  5
1172
  8
001
 62
   253
 10
878.06135499999993
 20
1098.1570650000001
 30
0.0
 40
2.0999999999999992
  0
LINE
  5
1173
  8
001
 62
   253
 10
886.37506499999995
 20
1281.843355
 30
0.0
 11
803.51031999999998
 21
1281.843355
 31
0.0
  0
LINE
  5
1174
  8
001
 62
   253
 10
766.37506499999995
 20
1281.843355
 30
0.0
 11
686.37506499999995
 21
1281.843355
 31
0.0
  0
LINE
  5
1175
  8
001
 62
   253
 10
884.37506499999995
 20
1081.843355
 30
0.0
 11
837.74625999999989
 21
1081.843355
 31
0.0
  0
LINE
  5
1176
  8
001
 62
   253
 10
735.00386500000002
 20
1081.843355
 30
0.0
 11
688.37506499999995
 21
1081.843355
 31
0.0
  0
LINE
  5
1177
  8
001
 62
   253
 10
678.37506499999995
 20
1091.843355
 30
0.0
 11
688.37506499999995
 21
1081.843355
 31
0.0
  0
LINE
  5
1178
  8
001
 62
   253
 10
894.37506499999995
 20
1273.843355
 30
0.0
 11
886.37506499999995
 21
1281.843355
 31
0.0
  0
LINE
  5
1179
  8
001
 62
   253
 10
884.37506499999995
 20
1081.843355
 30
0.0
 11
894.37506499999995
 21
1091.843355
 31
0.0
  0
LINE
  5
117A
  8
001
 62
   253
 10
678.37506499999995
 20
1091.843355
 30
0.0
 11
678.37506499999995
 21
1103.8763899999999
 31
0.0
  0
LINE
  5
117B
  8
001
 62
   253
 10
678.37506499999995
 20
1254.343355
 30
0.0
 11
678.37506499999995
 21
1273.843355
 31
0.0
  0
LINE
  5
117C
  8
001
 62
   253
 10
894.37506499999995
 20
1273.843355
 30
0.0
 11
894.37506499999995
 21
1254.343355
 31
0.0
  0
LINE
  5
117D
  8
001
 62
   253
 10
894.37506499999995
 20
1103.8763899999999
 30
0.0
 11
894.37506499999995
 21
1091.843355
 31
0.0
  0
CIRCLE
  5
117E
  8
001
 62
   253
 10
694.68877500000008
 20
1098.1570650000001
 30
0.0
 40
2.0999999999999992
  0
LINE
  5
117F
  8
001
 62
   253
 10
686.37506499999995
 20
1281.843355
 30
0.0
 11
678.37506499999995
 21
1273.843355
 31
0.0
  0
LINE
  5
1180
  8
001
 62
     2
 10
678.37506499999995
 20
1254.343355
 30
0.0
 11
678.37506499999995
 21
1194.81032
 31
0.0
  0
ARC
  5
1181
  8
001
 62
     2
 10
680.37506499999995
 20
1254.343355
 30
0.0
 40
2.0
 50
90.0
 51
180.0
  0
LINE
  5
1182
  8
001
 62
     2
 10
725.97506499999986
 20
1256.343355
 30
0.0
 11
680.37506499999995
 21
1256.343355
 31
0.0
  0
LINE
  5
1183
  8
001
 62
     2
 10
725.97506499999986
 20
1202.334775
 30
0.0
 11
725.97506499999986
 21
1256.343355
 31
0.0
  0
LINE
  5
1184
  8
001
 62
     2
 10
846.77506499999993
 20
1256.343355
 30
0.0
 11
846.77506499999993
 21
1202.334775
 31
0.0
  0
LINE
  5
1185
  8
001
 62
     2
 10
892.37506499999995
 20
1256.343355
 30
0.0
 11
846.77506499999993
 21
1256.343355
 31
0.0
  0
ARC
  5
1186
  8
001
 62
     2
 10
892.37506499999995
 20
1254.343355
 30
0.0
 40
1.9999999999999849
 50
0.0
 51
90.0
  0
LINE
  5
1187
  8
001
 62
     2
 10
894.37506499999995
 20
1194.81032
 30
0.0
 11
894.37506499999995
 21
1254.343355
 31
0.0
  0
ARC
  5
1188
  8
001
 62
     2
 10
786.37506499999995
 20
1176.843355
 30
0.0
 40
108.0
 50
222.50232000000011
 51
248.261539
  0
ARC
  5
1189
  8
001
 62
     2
 10
786.37506499999995
 20
1176.843355
 30
0.0
 40
108.0
 50
291.73846099999997
 51
317.49768
  0
ARC
  5
118A
  8
001
 62
     2
 10
786.37506499999995
 20
1161.843355
 30
0.0
 40
20.0
 50
209.127286
 51
209.40057300000001
  0
ARC
  5
118B
  8
001
 62
     2
 10
786.37506499999995
 20
1161.843355
 30
0.0
 40
20.0
 50
221.27851699999999
 51
229.75142700000001
  0
ARC
  5
118C
  8
001
 62
     2
 10
786.37506499999995
 20
1161.843355
 30
0.0
 40
20.0
 50
310.24857300000002
 51
329.40057300000001
  0
LINE
  5
118D
  8
001
 62
   134
 10
728.87506499999995
 20
1244.343355
 30
0.0
 11
725.97506499999986
 21
1241.4433550000001
 31
0.0
  0
LINE
  5
118E
  8
001
 62
   134
 10
846.77506499999993
 20
1241.4433550000001
 30
0.0
 11
843.87506499999995
 21
1244.343355
 31
0.0
  0
LINE
  5
118F
  8
001
 62
     2
 10
821.575065
 20
1059.722035
 30
0.0
 11
751.17506499999979
 21
1059.722035
 31
0.0
  0
LINE
  5
1190
  8
001
 62
     2
 10
821.575065
 20
1054.1865
 30
0.0
 11
821.575065
 21
1074.7406599999999
 31
0.0
  0
LINE
  5
1191
  8
001
 62
     2
 10
821.575065
 20
1054.1865
 30
0.0
 11
823.17506499999979
 21
1054.1865
 31
0.0
  0
LINE
  5
1192
  8
001
 62
     2
 10
823.17506499999979
 20
1075.3063649999999
 30
0.0
 11
823.17506499999979
 21
1054.1865
 31
0.0
  0
LINE
  5
1193
  8
001
 62
     2
 10
749.57506499999977
 20
1075.3063649999999
 30
0.0
 11
749.57506499999977
 21
1054.1865
 31
0.0
  0
LINE
  5
1194
  8
001
 62
     2
 10
749.57506499999977
 20
1054.1865
 30
0.0
 11
751.17506499999979
 21
1054.1865
 31
0.0
  0
LINE
  5
1195
  8
001
 62
     2
 10
751.17506499999979
 20
1074.7406599999999
 30
0.0
 11
751.17506499999979
 21
1054.1865
 31
0.0
  0
LINE
  5
1196
  8
001
 62
     4
 10
772.87506499999995
 20
1249.343355
 30
0.0
 11
772.87506499999995
 21
1244.343355
 31
0.0
  0
LINE
  5
1197
  8
001
 62
     4
 10
770.87506499999995
 20
1244.343355
 30
0.0
 11
770.87506499999995
 21
1249.343355
 31
0.0
  0
LINE
  5
1198
  8
001
 62
     4
 10
838.87506499999995
 20
1244.343355
 30
0.0
 11
838.87506499999995
 21
1256.343355
 31
0.0
  0
LINE
  5
1199
  8
001
 62
     4
 10
843.87506499999995
 20
1256.343355
 30
0.0
 11
843.87506499999995
 21
1244.343355
 31
0.0
  0
LINE
  5
119A
  8
001
 62
     4
 10
812.87506499999984
 20
1249.343355
 30
0.0
 11
812.87506499999984
 21
1244.343355
 31
0.0
  0
LINE
  5
119B
  8
001
 62
     4
 10
813.37506499999995
 20
1256.343355
 30
0.0
 11
813.37506499999995
 21
1249.343355
 31
0.0
  0
LINE
  5
119C
  8
001
 62
     4
 10
843.87506499999995
 20
1244.343355
 30
0.0
 11
836.37506499999995
 21
1244.343355
 31
0.0
  0
LINE
  5
119D
  8
001
 62
     4
 10
799.87506499999995
 20
1244.343355
 30
0.0
 11
799.87506499999995
 21
1249.343355
 31
0.0
  0
LINE
  5
119E
  8
001
 62
     4
 10
801.87506499999995
 20
1249.343355
 30
0.0
 11
801.87506499999995
 21
1244.343355
 31
0.0
  0
LINE
  5
119F
  8
001
 62
     4
 10
810.87506499999995
 20
1244.343355
 30
0.0
 11
810.87506499999995
 21
1249.343355
 31
0.0
  0
LINE
  5
11A0
  8
001
 62
     4
 10
810.87506499999995
 20
1249.343355
 30
0.0
 11
813.37506499999995
 21
1249.343355
 31
0.0
  0
LINE
  5
11A1
  8
001
 62
     4
 10
773.37506499999995
 20
1249.343355
 30
0.0
 11
770.87506499999995
 21
1249.343355
 31
0.0
  0
LINE
  5
11A2
  8
001
 62
     4
 10
773.37506499999995
 20
1256.343355
 30
0.0
 11
773.37506499999995
 21
1249.343355
 31
0.0
  0
LINE
  5
11A3
  8
001
 62
     4
 10
799.37506499999995
 20
1249.343355
 30
0.0
 11
799.37506499999995
 21
1256.343355
 31
0.0
  0
LINE
  5
11A4
  8
001
 62
     4
 10
801.87506499999995
 20
1249.343355
 30
0.0
 11
799.37506499999995
 21
1249.343355
 31
0.0
  0
LINE
  5
11A5
  8
001
 62
     4
 10
759.87506499999995
 20
1244.343355
 30
0.0
 11
759.87506499999995
 21
1249.343355
 31
0.0
  0
LINE
  5
11A6
  8
001
 62
     4
 10
761.87506499999995
 20
1249.343355
 30
0.0
 11
761.87506499999995
 21
1244.343355
 31
0.0
  0
LINE
  5
11A7
  8
001
 62
     4
 10
759.37506499999995
 20
1249.343355
 30
0.0
 11
759.37506499999995
 21
1256.343355
 31
0.0
  0
LINE
  5
11A8
  8
001
 62
     4
 10
733.87506499999995
 20
1256.343355
 30
0.0
 11
733.87506499999995
 21
1244.343355
 31
0.0
  0
LINE
  5
11A9
  8
001
 62
     4
 10
761.87506499999995
 20
1249.343355
 30
0.0
 11
759.37506499999995
 21
1249.343355
 31
0.0
  0
LINE
  5
11AA
  8
001
 62
     4
 10
728.87506499999995
 20
1244.343355
 30
0.0
 11
728.87506499999995
 21
1256.343355
 31
0.0
  0
LINE
  5
11AB
  8
001
 62
     4
 10
736.37506499999995
 20
1244.343355
 30
0.0
 11
728.87506499999995
 21
1244.343355
 31
0.0
  0
LINE
  5
11AC
  8
001
 62
     4
 10
760.6750649999999
 20
1256.343355
 30
0.0
 11
728.87506499999995
 21
1256.343355
 31
0.0
  0
LINE
  5
11AD
  8
001
 62
     4
 10
812.07506499999988
 20
1256.343355
 30
0.0
 11
843.87506499999995
 21
1256.343355
 31
0.0
  0
LINE
  5
11AE
  8
001
 62
     4
 10
800.67506499999979
 20
1256.343355
 30
0.0
 11
772.07506499999988
 21
1256.343355
 31
0.0
  0
LINE
  5
11AF
  8
001
 62
   253
 10
1353.8161849999999
 20
769.06889000000001
 30
0.0
 11
1353.8161849999999
 21
787.06889000000001
 31
0.0
  0
LINE
  5
11B0
  8
001
 62
   253
 10
1353.8161849999999
 20
787.06889000000001
 30
0.0
 11
1352.3161849999999
 21
787.06889000000001
 31
0.0
  0
LINE
  5
11B1
  8
001
 62
   253
 10
1352.3161849999999
 20
769.06889000000001
 30
0.0
 11
1353.8161849999999
 21
769.06889000000001
 31
0.0
  0
LINE
  5
11B2
  8
001
 62
   253
 10
1247.8161849999999
 20
833.99973499999987
 30
0.0
 11
1246.58251
 21
834.11889500000007
 31
0.0
  0
LINE
  5
11B3
  8
001
 62
   253
 10
1247.090895
 20
833.51889000000006
 30
0.0
 11
1246.58251
 21
834.11889500000007
 31
0.0
  0
LINE
  5
11B4
  8
001
 62
   253
 10
1245.5682999999999
 20
834.11889500000007
 30
0.0
 11
1245.4381699999999
 21
833.51889000000006
 31
0.0
  0
LINE
  5
11B5
  8
001
 62
    21
 10
1267.2828999999999
 20
834.0688899999999
 30
0.0
 11
1267.2828999999999
 21
832.06889000000001
 31
0.0
  0
LINE
  5
11B6
  8
001
 62
    21
 10
1284.3161849999999
 20
834.0688899999999
 30
0.0
 11
1284.3161849999999
 21
832.06889000000001
 31
0.0
  0
LINE
  5
11B7
  8
001
 62
   134
 10
1247.8161849999999
 20
833.51889000000006
 30
0.0
 11
1242.832105
 21
833.51889000000006
 31
0.0
  0
POLYLINE
  5
11B8
  8
001
 62
   134
 66
     1
 10
0.0
 20
0.0
 30
0.0
  0
VERTEX
  5
11BA
  8
001
 62
   134
 10
1244.1921199999999
 20
832.64993000000004
 30
0.0
  0
VERTEX
  5
11BB
  8
001
 62
   134
 10
1244.118305
 20
832.78612499999986
 30
0.0
  0
VERTEX
  5
11BC
  8
001
 62
   134
 10
1244.0176550000001
 20
832.89099999999996
 30
0.0
  0
VERTEX
  5
11BD
  8
001
 62
   134
 10
1243.983555
 20
832.91001000000006
 30
0.0
  0
VERTEX
  5
11BE
  8
001
 62
   134
 10
1243.94758
 20
832.92683
 30
0.0
  0
SEQEND
  5
11B9
  8
001
  0
LINE
  5
11BF
  8
001
 62
   134
 10
1260.9793199999999
 20
833.51889000000006
 30
0.0
 11
1267.2828999999999
 21
833.51889000000006
 31
0.0
  0
POLYLINE
  5
11C0
  8
001
 62
   134
 66
     1
 10
0.0
 20
0.0
 30
0.0
  0
VERTEX
  5
11C2
  8
001
 62
   134
 10
1243.979955
 20
832.06936499999995
 30
0.0
  0
VERTEX
  5
11C3
  8
001
 62
   134
 10
1244.03721
 20
832.14569499999993
 30
0.0
  0
VERTEX
  5
11C4
  8
001
 62
   134
 10
1244.0912900000001
 20
832.2248199999998
 30
0.0
  0
VERTEX
  5
11C5
  8
001
 62
   134
 10
1244.1400799999999
 20
832.31237999999985
 30
0.0
  0
VERTEX
  5
11C6
  8
001
 62
   134
 10
1244.1746000000001
 20
832.40526499999999
 30
0.0
  0
VERTEX
  5
11C7
  8
001
 62
   134
 10
1244.1916100000001
 20
832.5258349999998
 30
0.0
  0
VERTEX
  5
11C8
  8
001
 62
   134
 10
1244.1921199999999
 20
832.64993000000004
 30
0.0
  0
SEQEND
  5
11C1
  8
001
  0
POLYLINE
  5
11C9
  8
001
 62
   134
 66
     1
 10
0.0
 20
0.0
 30
0.0
  0
VERTEX
  5
11CB
  8
001
 62
   134
 10
1243.94758
 20
832.92683
 30
0.0
  0
VERTEX
  5
11CC
  8
001
 62
   134
 10
1243.7089450000001
 20
832.96031999999991
 30
0.0
  0
VERTEX
  5
11CD
  8
001
 62
   134
 10
1243.473765
 20
832.96495000000004
 30
0.0
  0
VERTEX
  5
11CE
  8
001
 62
   134
 10
1243.147305
 20
832.88793499999986
 30
0.0
  0
VERTEX
  5
11CF
  8
001
 62
   134
 10
1242.8279250000001
 20
832.75184999999999
 30
0.0
  0
SEQEND
  5
11CA
  8
001
  0
LINE
  5
11D0
  8
001
 62
   253
 10
1353.3161849999999
 20
726.94789000000003
 30
0.0
 11
1352.8161849999999
 21
726.44788999999992
 31
0.0
  0
LINE
  5
11D1
  8
001
 62
   253
 10
1352.8161849999999
 20
667.44789000000003
 30
0.0
 11
1353.3161849999999
 21
666.94789000000003
 31
0.0
  0
LINE
  5
11D2
  8
001
 62
   253
 10
1353.3161849999999
 20
726.94789000000003
 30
0.0
 11
1353.3161849999999
 21
666.94789000000003
 31
0.0
  0
LINE
  5
11D3
  8
001
 62
   253
 10
1372.3161849999999
 20
725.94788999999992
 30
0.0
 11
1372.3161849999999
 21
667.94789000000003
 31
0.0
  0
LINE
  5
11D4
  8
001
 62
   253
 10
1371.3161849999999
 20
666.94789000000003
 30
0.0
 11
1372.3161849999999
 21
667.94789000000003
 31
0.0
  0
LINE
  5
11D5
  8
001
 62
   253
 10
1372.3161849999999
 20
725.94788999999992
 30
0.0
 11
1371.3161849999999
 21
726.94789000000003
 31
0.0
  0
LINE
  5
11D6
  8
001
 62
   253
 10
1371.3161849999999
 20
666.94789000000003
 30
0.0
 11
1371.3161849999999
 21
726.94789000000003
 31
0.0
  0
LINE
  5
11D7
  8
001
 62
   253
 10
1371.3161849999999
 20
726.94789000000003
 30
0.0
 11
1353.3161849999999
 21
726.94789000000003
 31
0.0
  0
LINE
  5
11D8
  8
001
 62
   253
 10
1353.3161849999999
 20
666.94789000000003
 30
0.0
 11
1371.3161849999999
 21
666.94789000000003
 31
0.0
  0
LINE
  5
11D9
  8
001
 62
     5
 10
1369.8161849999999
 20
764.25210999999979
 30
0.0
 11
1379.22028
 21
764.25210999999979
 31
0.0
  0
POLYLINE
  5
11DA
  8
001
 62
     5
 66
     1
 10
0.0
 20
0.0
 30
0.0
  0
VERTEX
  5
11DC
  8
001
 62
     5
 10
1379.2262049999999
 20
764.25217000000009
 30
0.0
  0
VERTEX
  5
11DD
  8
001
 62
     5
 10
1379.383315
 20
764.26946999999996
 30
0.0
  0
VERTEX
  5
11DE
  8
001
 62
     5
 10
1379.5367499999991
 20
764.30131499999993
 30
0.0
  0
VERTEX
  5
11DF
  8
001
 62
     5
 10
1379.6892949999999
 20
764.36192500000016
 30
0.0
  0
VERTEX
  5
11E0
  8
001
 62
     5
 10
1379.8308649999999
 20
764.44727999999998
 30
0.0
  0
VERTEX
  5
11E1
  8
001
 62
     5
 10
1379.9387099999999
 20
764.53328999999997
 30
0.0
  0
VERTEX
  5
11E2
  8
001
 62
     5
 10
1380.0347999999999
 20
764.6314349999999
 30
0.0
  0
VERTEX
  5
11E3
  8
001
 62
     5
 10
1380.0652500000001
 20
764.66823499999987
 30
0.0
  0
VERTEX
  5
11E4
  8
001
 62
     5
 10
1380.094875
 20
764.70574999999997
 30
0.0
  0
SEQEND
  5
11DB
  8
001
  0
ARC
  5
11E5
  8
001
 62
     5
 10
1369.8161849999999
 20
765.25211000000002
 30
0.0
 40
1.0
 50
180.0
 51
270.0
  0
LINE
  5
11E6
  8
001
 62
     5
 10
1379.21919
 20
791.88567
 30
0.0
 11
1369.8161849999999
 21
791.88567
 31
0.0
  0
ARC
  5
11E7
  8
001
 62
     5
 10
1369.8161849999999
 20
790.88567
 30
0.0
 40
1.0
 50
90.0
 51
180.0
  0
POLYLINE
  5
11E8
  8
001
 62
     5
 66
     1
 10
0.0
 20
0.0
 30
0.0
  0
VERTEX
  5
11EA
  8
001
 62
     5
 10
1380.0940049999999
 20
791.43317999999999
 30
0.0
  0
VERTEX
  5
11EB
  8
001
 62
     5
 10
1380.067245
 20
791.46712500000001
 30
0.0
  0
VERTEX
  5
11EC
  8
001
 62
     5
 10
1380.0398150000001
 20
791.50050499999986
 30
0.0
  0
VERTEX
  5
11ED
  8
001
 62
     5
 10
1379.9322549999999
 20
791.61017000000004
 30
0.0
  0
VERTEX
  5
11EE
  8
001
 62
     5
 10
1379.810185
 20
791.70453999999995
 30
0.0
  0
VERTEX
  5
11EF
  8
001
 62
     5
 10
1379.6505050000001
 20
791.79403000000002
 30
0.0
  0
VERTEX
  5
11F0
  8
001
 62
     5
 10
1379.4785449999999
 20
791.85298499999988
 30
0.0
  0
VERTEX
  5
11F1
  8
001
 62
     5
 10
1379.3522250000001
 20
791.87407999999994
 30
0.0
  0
VERTEX
  5
11F2
  8
001
 62
     5
 10
1379.22398
 20
791.88563500000009
 30
0.0
  0
SEQEND
  5
11E9
  8
001
  0
POLYLINE
  5
11F3
  8
001
 62
     5
 66
     1
 10
0.0
 20
0.0
 30
0.0
  0
VERTEX
  5
11F5
  8
001
 62
     5
 10
1380.519045
 20
762.40055500000005
 30
0.0
  0
VERTEX
  5
11F6
  8
001
 62
     5
 10
1380.5125250000001
 20
762.3510050000001
 30
0.0
  0
VERTEX
  5
11F7
  8
001
 62
     5
 10
1380.5059550000001
 20
762.30145999999991
 30
0.0
  0
VERTEX
  5
11F8
  8
001
 62
     5
 10
1380.3991450000001
 20
761.56686499999989
 30
0.0
  0
VERTEX
  5
11F9
  8
001
 62
     5
 10
1380.28196
 20
760.83374499999991
 30
0.0
  0
SEQEND
  5
11F4
  8
001
  0
POLYLINE
  5
11FA
  8
001
 62
     5
 66
     1
 10
0.0
 20
0.0
 30
0.0
  0
VERTEX
  5
11FC
  8
001
 62
     5
 10
1380.5186650000001
 20
793.74013500000001
 30
0.0
  0
VERTEX
  5
11FD
  8
001
 62
     5
 10
1380.5274199999999
 20
793.67243499999995
 30
0.0
  0
VERTEX
  5
11FE
  8
001
 62
     5
 10
1380.5360949999999
 20
793.60472499999992
 30
0.0
  0
VERTEX
  5
11FF
  8
001
 62
     5
 10
1380.61186
 20
792.94709
 30
0.0
  0
VERTEX
  5
1200
  8
001
 62
     5
 10
1380.671245
 20
792.28746499999977
 30
0.0
  0
VERTEX
  5
1201
  8
001
 62
     5
 10
1380.699355
 20
791.83463500000005
 30
0.0
  0
VERTEX
  5
1202
  8
001
 62
     5
 10
1380.7043900000001
 20
791.38145999999995
 30
0.0
  0
VERTEX
  5
1203
  8
001
 62
     5
 10
1380.7021
 20
791.307365
 30
0.0
  0
VERTEX
  5
1204
  8
001
 62
     5
 10
1380.6993
 20
791.23328000000004
 30
0.0
  0
SEQEND
  5
11FB
  8
001
  0
ARC
  5
1205
  8
001
 62
     5
 10
1310.3161849999999
 20
771.5688899999999
 30
0.0
 40
70.79901129253345
 50
352.55206900000002
 51
354.732303
  0
ARC
  5
1206
  8
001
 62
     5
 10
1310.3161849999999
 20
784.5688899999999
 30
0.0
 40
70.79901129253345
 50
5.2676970000000001
 51
7.4537060000000004
  0
LINE
  5
1207
  8
001
 62
     5
 10
1380.8161849999999
 20
791.06889000000001
 30
0.0
 11
1380.8161849999999
 21
765.06889000000001
 31
0.0
  0
POLYLINE
  5
1208
  8
001
 62
     5
 66
     1
 10
0.0
 20
0.0
 30
0.0
  0
VERTEX
  5
120A
  8
001
 62
     5
 10
1380.28196
 20
795.304035
 30
0.0
  0
VERTEX
  5
120B
  8
001
 62
     5
 10
1380.28971
 20
795.25825999999995
 30
0.0
  0
VERTEX
  5
120C
  8
001
 62
     5
 10
1380.297425
 20
795.21247499999993
 30
0.0
  0
VERTEX
  5
120D
  8
001
 62
     5
 10
1380.412765
 20
794.47706000000005
 30
0.0
  0
VERTEX
  5
120E
  8
001
 62
     5
 10
1380.5186650000001
 20
793.74013500000001
 30
0.0
  0
SEQEND
  5
1209
  8
001
  0
POLYLINE
  5
120F
  8
001
 62
     5
 66
     1
 10
0.0
 20
0.0
 30
0.0
  0
VERTEX
  5
1211
  8
001
 62
     5
 10
1380.70137
 20
764.86032499999988
 30
0.0
  0
VERTEX
  5
1212
  8
001
 62
     5
 10
1380.703755
 20
764.70005000000003
 30
0.0
  0
VERTEX
  5
1213
  8
001
 62
     5
 10
1380.7043900000001
 20
764.53980000000001
 30
0.0
  0
VERTEX
  5
1214
  8
001
 62
     5
 10
1380.68515
 20
764.01577000000009
 30
0.0
  0
VERTEX
  5
1215
  8
001
 62
     5
 10
1380.64175
 20
763.49275499999999
 30
0.0
  0
VERTEX
  5
1216
  8
001
 62
     5
 10
1380.5833600000001
 20
762.94620999999995
 30
0.0
  0
VERTEX
  5
1217
  8
001
 62
     5
 10
1380.519045
 20
762.40055500000005
 30
0.0
  0
SEQEND
  5
1210
  8
001
  0
LINE
  5
1218
  8
001
 62
     5
 10
1380.0929349999999
 20
764.70280999999989
 30
0.0
 11
1380.1052299999999
 21
764.71844999999985
 31
0.0
  0
LINE
  5
1219
  8
001
 62
     5
 10
1380.1053649999999
 20
791.41918999999984
 30
0.0
 11
1380.0928100000001
 21
791.43512500000008
 31
0.0
  0
LINE
  5
121A
  8
001
 62
     5
 10
1353.8161849999999
 20
770.56889000000001
 30
0.0
 11
1368.8161849999999
 21
770.56889000000001
 31
0.0
  0
LINE
  5
121B
  8
001
 62
     5
 10
1368.8161849999999
 20
785.56889000000001
 30
0.0
 11
1353.8161849999999
 21
785.56889000000001
 31
0.0
  0
LINE
  5
121C
  8
001
 62
     5
 10
1379.0167650000001
 20
797.33473499999991
 30
0.0
 11
1369.8161849999999
 21
797.33473499999991
 31
0.0
  0
POLYLINE
  5
121D
  8
001
 62
     5
 66
     1
 10
0.0
 20
0.0
 30
0.0
  0
VERTEX
  5
121F
  8
001
 62
     5
 10
1380.27718
 20
795.33343999999988
 30
0.0
  0
VERTEX
  5
1220
  8
001
 62
     5
 10
1380.264735
 20
795.40569999999991
 30
0.0
  0
VERTEX
  5
1221
  8
001
 62
     5
 10
1380.25217
 20
795.47793999999976
 30
0.0
  0
VERTEX
  5
1222
  8
001
 62
     5
 10
1380.2053350000001
 20
795.73577499999999
 30
0.0
  0
VERTEX
  5
1223
  8
001
 62
     5
 10
1380.1548299999999
 20
795.9929350000001
 30
0.0
  0
VERTEX
  5
1224
  8
001
 62
     5
 10
1380.11178
 20
796.19357000000002
 30
0.0
  0
VERTEX
  5
1225
  8
001
 62
     5
 10
1380.062805
 20
796.39281500000004
 30
0.0
  0
VERTEX
  5
1226
  8
001
 62
     5
 10
1380.035985
 20
796.48792000000003
 30
0.0
  0
VERTEX
  5
1227
  8
001
 62
     5
 10
1380.005635
 20
796.58193000000006
 30
0.0
  0
VERTEX
  5
1228
  8
001
 62
     5
 10
1379.975905
 20
796.66077499999994
 30
0.0
  0
VERTEX
  5
1229
  8
001
 62
     5
 10
1379.94172
 20
796.73782499999993
 30
0.0
  0
VERTEX
  5
122A
  8
001
 62
     5
 10
1379.8881200000001
 20
796.83656999999994
 30
0.0
  0
VERTEX
  5
122B
  8
001
 62
     5
 10
1379.824985
 20
796.92943500000001
 30
0.0
  0
VERTEX
  5
122C
  8
001
 62
     5
 10
1379.742575
 20
797.02516000000014
 30
0.0
  0
VERTEX
  5
122D
  8
001
 62
     5
 10
1379.64904
 20
797.11067500000001
 30
0.0
  0
VERTEX
  5
122E
  8
001
 62
     5
 10
1379.515275
 20
797.2030749999999
 30
0.0
  0
VERTEX
  5
122F
  8
001
 62
     5
 10
1379.368655
 20
797.27056999999991
 30
0.0
  0
VERTEX
  5
1230
  8
001
 62
     5
 10
1379.1972049999999
 20
797.31228999999996
 30
0.0
  0
VERTEX
  5
1231
  8
001
 62
     5
 10
1379.0201199999999
 20
797.33469499999978
 30
0.0
  0
SEQEND
  5
121E
  8
001
  0
POLYLINE
  5
1232
  8
001
 62
     5
 66
     1
 10
0.0
 20
0.0
 30
0.0
  0
VERTEX
  5
1234
  8
001
 62
     5
 10
1379.0183
 20
758.80321500000002
 30
0.0
  0
VERTEX
  5
1235
  8
001
 62
     5
 10
1379.0705
 20
758.80532999999991
 30
0.0
  0
VERTEX
  5
1236
  8
001
 62
     5
 10
1379.122595
 20
758.80899999999997
 30
0.0
  0
VERTEX
  5
1237
  8
001
 62
     5
 10
1379.283025
 20
758.83902
 30
0.0
  0
VERTEX
  5
1238
  8
001
 62
     5
 10
1379.4366649999999
 20
758.89569499999993
 30
0.0
  0
VERTEX
  5
1239
  8
001
 62
     5
 10
1379.5537300000001
 20
758.959295
 30
0.0
  0
VERTEX
  5
123A
  8
001
 62
     5
 10
1379.6613850000001
 20
759.03731999999991
 30
0.0
  0
VERTEX
  5
123B
  8
001
 62
     5
 10
1379.7419050000001
 20
759.11179000000016
 30
0.0
  0
VERTEX
  5
123C
  8
001
 62
     5
 10
1379.8141049999999
 20
759.19434999999999
 30
0.0
  0
VERTEX
  5
123D
  8
001
 62
     5
 10
1379.8630000000001
 20
759.26181000000008
 30
0.0
  0
VERTEX
  5
123E
  8
001
 62
     5
 10
1379.90661
 20
759.33276499999988
 30
0.0
  0
VERTEX
  5
123F
  8
001
 62
     5
 10
1379.937635
 20
759.39157
 30
0.0
  0
VERTEX
  5
1240
  8
001
 62
     5
 10
1379.9654599999999
 20
759.45195999999987
 30
0.0
  0
VERTEX
  5
1241
  8
001
 62
     5
 10
1379.9944399999999
 20
759.52463
 30
0.0
  0
VERTEX
  5
1242
  8
001
 62
     5
 10
1380.0200299999999
 20
759.59856999999988
 30
0.0
  0
VERTEX
  5
1243
  8
001
 62
     5
 10
1380.05483
 20
759.71527500000002
 30
0.0
  0
VERTEX
  5
1244
  8
001
 62
     5
 10
1380.0853400000001
 20
759.83320000000003
 30
0.0
  0
VERTEX
  5
1245
  8
001
 62
     5
 10
1380.1326200000001
 20
760.03893999999991
 30
0.0
  0
VERTEX
  5
1246
  8
001
 62
     5
 10
1380.175195
 20
760.24569499999984
 30
0.0
  0
VERTEX
  5
1247
  8
001
 62
     5
 10
1380.224015
 20
760.50249499999995
 30
0.0
  0
VERTEX
  5
1248
  8
001
 62
     5
 10
1380.269595
 20
760.75988499999994
 30
0.0
  0
VERTEX
  5
1249
  8
001
 62
     5
 10
1380.2778499999999
 20
760.80822499999988
 30
0.0
  0
VERTEX
  5
124A
  8
001
 62
     5
 10
1380.286065
 20
760.85657500000002
 30
0.0
  0
SEQEND
  5
1233
  8
001
  0
LINE
  5
124B
  8
001
 62
     5
 10
1369.8161849999999
 20
758.80304000000001
 30
0.0
 11
1379.0195550000001
 21
758.80304000000001
 31
0.0
  0
ARC
  5
124C
  8
001
 62
     5
 10
1369.8161849999999
 20
759.80304000000012
 30
0.0
 40
1.0
 50
180.0
 51
270.0
  0
ARC
  5
124D
  8
001
 62
     5
 10
1369.8161849999999
 20
796.33473500000002
 30
0.0
 40
1.0
 50
90.0
 51
180.0
  0
LINE
  5
124E
  8
001
 62
     5
 10
1368.8161849999999
 20
759.80304000000012
 30
0.0
 11
1368.8161849999999
 21
796.33473500000002
 31
0.0
  0
LINE
  5
124F
  8
001
 62
     5
 10
1374.3161849999999
 20
701.94789000000003
 30
0.0
 11
1373.466185
 21
701.94789000000003
 31
0.0
  0
LINE
  5
1250
  8
001
 62
     5
 10
1373.466185
 20
691.94789000000003
 30
0.0
 11
1374.3161849999999
 21
691.94789000000003
 31
0.0
  0
LINE
  5
1251
  8
001
 62
     5
 10
1374.3161849999999
 20
701.94789000000003
 30
0.0
 11
1374.3161849999999
 21
691.94789000000003
 31
0.0
  0
LINE
  5
1252
  8
001
 62
     5
 10
1373.466185
 20
701.94789000000003
 30
0.0
 11
1373.466185
 21
691.94789000000003
 31
0.0
  0
LINE
  5
1253
  8
001
 62
     5
 10
1374.3161849999999
 20
691.94789000000003
 30
0.0
 11
1375.3161849999999
 21
692.94789000000003
 31
0.0
  0
LINE
  5
1254
  8
001
 62
     5
 10
1375.3161849999999
 20
700.94788999999992
 30
0.0
 11
1374.3161849999999
 21
701.94789000000003
 31
0.0
  0
LINE
  5
1255
  8
001
 62
     5
 10
1375.3161849999999
 20
700.94788999999992
 30
0.0
 11
1375.3161849999999
 21
692.94789000000003
 31
0.0
  0
LINE
  5
1256
  8
001
 62
     5
 10
1373.466185
 20
701.74788999999998
 30
0.0
 11
1373.3161849999999
 21
701.74788999999998
 31
0.0
  0
LINE
  5
1257
  8
001
 62
     5
 10
1373.3161849999999
 20
692.14788999999985
 30
0.0
 11
1373.466185
 21
692.14788999999985
 31
0.0
  0
LINE
  5
1258
  8
001
 62
   253
 10
1352.8161849999999
 20
654.94789000000003
 30
0.0
 11
1352.8161849999999
 21
738.94788999999992
 31
0.0
  0
LINE
  5
1259
  8
001
 62
   253
 10
1352.8161849999999
 20
738.94788999999992
 30
0.0
 11
1352.3161849999999
 21
738.94788999999992
 31
0.0
  0
LINE
  5
125A
  8
001
 62
   253
 10
1352.3161849999999
 20
654.94789000000003
 30
0.0
 11
1352.8161849999999
 21
654.94789000000003
 31
0.0
  0
LINE
  5
125B
  8
001
 62
   200
 10
1345.5024800000001
 20
558.06889000000001
 30
0.0
 11
1347.1286050000001
 21
544.82515000000001
 31
0.0
  0
LINE
  5
125C
  8
001
 62
   200
 10
1375.87635
 20
544.82515000000001
 30
0.0
 11
1377.5024800000001
 21
558.06889000000001
 31
0.0
  0
ARC
  5
125D
  8
001
 62
   200
 10
1373.8912600000001
 20
545.06889000000001
 30
0.0
 40
2.0
 50
270.0
 51
353.0
  0
ARC
  5
125E
  8
001
 62
   200
 10
1349.113695
 20
545.06889000000001
 30
0.0
 40
2.0
 50
187.0
 51
270.0
  0
LINE
  5
125F
  8
001
 62
   200
 10
1349.113695
 20
543.0688899999999
 30
0.0
 11
1373.8912600000001
 21
543.0688899999999
 31
0.0
  0
LINE
  5
1260
  8
001
 62
   200
 10
1178.129895
 20
558.06889000000001
 30
0.0
 11
1179.75602
 21
544.82515000000001
 31
0.0
  0
LINE
  5
1261
  8
001
 62
   200
 10
1208.50377
 20
544.82515000000001
 30
0.0
 11
1210.129895
 21
558.06889000000001
 31
0.0
  0
LINE
  5
1262
  8
001
 62
   200
 10
1182.8161849999999
 20
558.06889000000001
 30
0.0
 11
1187.8161849999999
 21
558.06889000000001
 31
0.0
  0
ARC
  5
1263
  8
001
 62
   200
 10
1206.518675
 20
545.06889000000001
 30
0.0
 40
2.0
 50
270.0
 51
353.0
  0
ARC
  5
1264
  8
001
 62
   200
 10
1181.741115
 20
545.06889000000001
 30
0.0
 40
2.0
 50
187.0
 51
270.0
  0
LINE
  5
1265
  8
001
 62
   200
 10
1181.741115
 20
543.0688899999999
 30
0.0
 11
1206.518675
 21
543.0688899999999
 31
0.0
  0
LINE
  5
1266
  8
001
 62
   253
 10
1298.3076100000001
 20
863.06900499999995
 30
0.0
 11
1269.307495
 21
834.0688899999999
 31
0.0
  0
LINE
  5
1267
  8
001
 62
   253
 10
1261.5293200000001
 20
834.0688899999999
 30
0.0
 11
1340.3161849999999
 21
834.0688899999999
 31
0.0
  0
LINE
  5
1268
  8
001
 62
   253
 10
1340.3161849999999
 20
863.06900499999995
 30
0.0
 11
1290.5294349999999
 21
863.06900499999995
 31
0.0
  0
LINE
  5
1269
  8
001
 62
   134
 10
1293.3161849999999
 20
806.06889000000001
 30
0.0
 11
1293.3161849999999
 21
834.0688899999999
 31
0.0
  0
LINE
  5
126A
  8
001
 62
   134
 10
1293.3161849999999
 20
806.06889000000001
 30
0.0
 11
1340.3161849999999
 21
806.06889000000001
 31
0.0
  0
LINE
  5
126B
  8
001
 62
    60
 10
1290.7831550000001
 20
863.32272499999999
 30
0.0
 11
1246.023295
 21
818.56286499999987
 31
0.0
  0
LINE
  5
126C
  8
001
 62
    60
 10
1245.3161849999999
 20
818.56286499999987
 30
0.0
 11
1245.3161849999999
 21
819.26996999999994
 31
0.0
  0
LINE
  5
126D
  8
001
 62
    60
 10
1245.3161849999999
 20
819.26996999999994
 30
0.0
 11
1290.076045
 21
864.02982999999995
 31
0.0
  0
LINE
  5
126E
  8
001
 62
    60
 10
1290.7831550000001
 20
864.02982999999995
 30
0.0
 11
1290.076045
 21
864.02982999999995
 31
0.0
  0
LINE
  5
126F
  8
001
 62
    60
 10
1246.023295
 20
818.56286499999987
 30
0.0
 11
1244.6090799999999
 21
818.56286499999987
 31
0.0
  0
LINE
  5
1270
  8
001
 62
    60
 10
1244.6090799999999
 20
818.56286499999987
 30
0.0
 11
1199.8492200000001
 21
863.32272499999999
 31
0.0
  0
LINE
  5
1271
  8
001
 62
    60
 10
1200.5563299999999
 20
864.02982999999995
 30
0.0
 11
1199.8492200000001
 21
864.02982999999995
 31
0.0
  0
LINE
  5
1272
  8
001
 62
    60
 10
1200.5563299999999
 20
864.02982999999995
 30
0.0
 11
1245.3161849999999
 21
819.26996999999994
 31
0.0
  0
LINE
  5
1273
  8
001
 62
    60
 10
1206.21318
 20
870.39379000000008
 30
0.0
 11
1206.21318
 21
869.68668500000013
 31
0.0
  0
LINE
  5
1274
  8
001
 62
    60
 10
1206.21318
 20
869.68668500000013
 30
0.0
 11
1200.5563299999999
 21
864.02982999999995
 31
0.0
  0
LINE
  5
1275
  8
001
 62
    60
 10
1199.8492200000001
 20
863.32272499999999
 30
0.0
 11
1199.8492200000001
 21
864.73694
 31
0.0
  0
LINE
  5
1276
  8
001
 62
    60
 10
1199.8492200000001
 20
864.73694
 30
0.0
 11
1205.506075
 21
870.39379000000008
 31
0.0
  0
LINE
  5
1277
  8
001
 62
    60
 10
1290.076045
 20
864.02982999999995
 30
0.0
 11
1284.4191900000001
 21
869.68668500000013
 31
0.0
  0
LINE
  5
1278
  8
001
 62
    60
 10
1284.4191900000001
 20
869.68668500000013
 30
0.0
 11
1284.4191900000001
 21
870.39379000000008
 31
0.0
  0
LINE
  5
1279
  8
001
 62
    60
 10
1285.1262999999999
 20
870.39379000000008
 30
0.0
 11
1290.7831550000001
 21
864.73694
 31
0.0
  0
LINE
  5
127A
  8
001
 62
    60
 10
1290.7831550000001
 20
864.73694
 30
0.0
 11
1290.7831550000001
 21
863.32272499999999
 31
0.0
  0
LINE
  5
127B
  8
001
 62
    60
 10
1206.92029
 20
870.39379000000008
 30
0.0
 11
1242.8161849999999
 21
834.49789499999986
 31
0.0
  0
LINE
  5
127C
  8
001
 62
    60
 10
1242.8161849999999
 20
833.08367999999996
 30
0.0
 11
1206.21318
 21
869.68668500000013
 31
0.0
  0
LINE
  5
127D
  8
001
 62
    60
 10
1205.506075
 20
870.39379000000008
 30
0.0
 11
1206.92029
 21
870.39379000000008
 31
0.0
  0
LINE
  5
127E
  8
001
 62
    60
 10
1247.8161849999999
 20
834.49789499999986
 30
0.0
 11
1283.7120849999999
 21
870.39379000000008
 31
0.0
  0
LINE
  5
127F
  8
001
 62
    60
 10
1283.7120849999999
 20
870.39379000000008
 30
0.0
 11
1285.1262999999999
 21
870.39379000000008
 31
0.0
  0
LINE
  5
1280
  8
001
 62
    60
 10
1284.4191900000001
 20
869.68668500000013
 30
0.0
 11
1247.8161849999999
 21
833.08367999999996
 31
0.0
  0
LINE
  5
1281
  8
001
 62
    60
 10
1247.8161849999999
 20
831.06286499999987
 30
0.0
 11
1242.8161849999999
 21
831.06286499999987
 31
0.0
  0
LINE
  5
1282
  8
001
 62
    60
 10
1247.8161849999999
 20
834.49789499999986
 30
0.0
 11
1247.8161849999999
 21
831.06286499999987
 31
0.0
  0
LINE
  5
1283
  8
001
 62
    60
 10
1242.8161849999999
 20
831.06286499999987
 30
0.0
 11
1242.8161849999999
 21
834.49789499999986
 31
0.0
  0
LINE
  5
1284
  8
001
 62
   253
 10
1214.3161849999999
 20
818.86888999999985
 30
0.0
 11
1214.3161849999999
 21
814.86888999999985
 31
0.0
  0
LINE
  5
1285
  8
001
 62
   253
 10
1235.3161849999999
 20
814.86888999999985
 30
0.0
 11
1235.3161849999999
 21
818.86888999999985
 31
0.0
  0
ARC
  5
1286
  8
001
 62
   253
 10
1215.3161849999999
 20
818.86888999999985
 30
0.0
 40
1.000000000000002
 50
90.0
 51
180.0
  0
ARC
  5
1287
  8
001
 62
   253
 10
1234.3161849999999
 20
818.86888999999985
 30
0.0
 40
1.000000000000002
 50
0.0
 51
90.0
  0
LINE
  5
1288
  8
001
 62
   253
 10
1234.3161849999999
 20
819.86888999999996
 30
0.0
 11
1215.3161849999999
 21
819.86888999999996
 31
0.0
  0
ARC
  5
1289
  8
001
 62
   253
 10
1216.3161849999999
 20
814.86888999999985
 30
0.0
 40
1.9999999999999989
 50
180.0
 51
270.0
  0
ARC
  5
128A
  8
001
 62
   253
 10
1233.3161849999999
 20
814.86888999999985
 30
0.0
 40
1.9999999999999989
 50
270.0
 51
0.0
  0
LINE
  5
128B
  8
001
 62
   253
 10
1216.3161849999999
 20
812.86888999999996
 30
0.0
 11
1233.3161849999999
 21
812.86888999999996
 31
0.0
  0
LINE
  5
128C
  8
001
 62
   253
 10
1218.5661849999999
 20
812.86888999999996
 30
0.0
 11
1218.5661849999999
 21
801.86888999999985
 31
0.0
  0
LINE
  5
128D
  8
001
 62
   253
 10
1231.0661849999999
 20
801.86888999999985
 30
0.0
 11
1231.0661849999999
 21
812.86888999999996
 31
0.0
  0
LINE
  5
128E
  8
001
 62
    40
 10
1209.3161849999999
 20
800.26889000000006
 30
0.0
 11
1209.3161849999999
 21
801.86888999999985
 31
0.0
  0
LINE
  5
128F
  8
001
 62
    40
 10
1235.3161849999999
 20
801.86888999999985
 30
0.0
 11
1235.3161849999999
 21
800.26889000000006
 31
0.0
  0
LINE
  5
1290
  8
001
 62
    40
 10
1209.3161849999999
 20
801.86888999999985
 30
0.0
 11
1235.3161849999999
 21
801.86888999999985
 31
0.0
  0
LINE
  5
1291
  8
001
 62
    40
 10
1172.496695
 20
844.0688899999999
 30
0.0
 11
1172.496695
 21
800.26889000000006
 31
0.0
  0
LINE
  5
1292
  8
001
 62
    40
 10
1217.68884
 20
844.0688899999999
 30
0.0
 11
1229.68884
 21
832.06889000000001
 31
0.0
  0
LINE
  5
1293
  8
001
 62
    40
 10
1289.9829
 20
832.06889000000001
 30
0.0
 11
1259.5293200000001
 21
832.06889000000001
 31
0.0
  0
LINE
  5
1294
  8
001
 62
    40
 10
1247.8161849999999
 20
832.06889000000001
 30
0.0
 11
1242.8161849999999
 21
832.06889000000001
 31
0.0
  0
LINE
  5
1295
  8
001
 62
    40
 10
1231.103055
 20
832.06889000000001
 30
0.0
 11
1229.68884
 21
832.06889000000001
 31
0.0
  0
LINE
  5
1296
  8
001
 62
    40
 10
1164.8161849999999
 20
800.26889000000006
 30
0.0
 11
1172.496695
 21
800.26889000000006
 31
0.0
  0
LINE
  5
1297
  8
001
 62
    40
 10
1164.8161849999999
 20
844.0688899999999
 30
0.0
 11
1164.8161849999999
 21
800.26889000000006
 31
0.0
  0
LINE
  5
1298
  8
001
 62
    40
 10
1217.68884
 20
844.0688899999999
 30
0.0
 11
1164.8161849999999
 21
844.0688899999999
 31
0.0
  0
LINE
  5
1299
  8
001
 62
   253
 10
1187.8161849999999
 20
568.0688899999999
 30
0.0
 11
1187.8161849999999
 21
558.06889000000001
 31
0.0
  0
LINE
  5
129A
  8
001
 62
   253
 10
1182.8161849999999
 20
558.06889000000001
 30
0.0
 11
1177.8161849999999
 21
558.06889000000001
 31
0.0
  0
LINE
  5
129B
  8
001
 62
   253
 10
1177.8161849999999
 20
558.06889000000001
 30
0.0
 11
1177.8161849999999
 21
568.0688899999999
 31
0.0
  0
LINE
  5
129C
  8
001
 62
   253
 10
1369.8161849999999
 20
558.06889000000001
 30
0.0
 11
1369.8161849999999
 21
568.0688899999999
 31
0.0
  0
LINE
  5
129D
  8
001
 62
   253
 10
1377.8161849999999
 20
568.0688899999999
 30
0.0
 11
1377.8161849999999
 21
558.06889000000001
 31
0.0
  0
LINE
  5
129E
  8
001
 62
   253
 10
1377.8161849999999
 20
558.06889000000001
 30
0.0
 11
1187.8161849999999
 21
558.06889000000001
 31
0.0
  0
LINE
  5
129F
  8
001
 62
   253
 10
1177.8161849999999
 20
568.0688899999999
 30
0.0
 11
1377.8161849999999
 21
568.0688899999999
 31
0.0
  0
LINE
  5
12A0
  8
001
 62
     2
 10
1164.8161849999999
 20
637.06889000000001
 30
0.0
 11
1171.2791999999999
 21
637.06889000000001
 31
0.0
  0
LINE
  5
12A1
  8
001
 62
     2
 10
1164.8161849999999
 20
667.06889000000001
 30
0.0
 11
1171.2791999999999
 21
667.06889000000001
 31
0.0
  0
LINE
  5
12A2
  8
001
 62
     2
 10
1164.8161849999999
 20
637.06889000000001
 30
0.0
 11
1164.8161849999999
 21
577.06889000000001
 31
0.0
  0
LINE
  5
12A3
  8
001
 62
     2
 10
1164.8161849999999
 20
800.26889000000006
 30
0.0
 11
1164.8161849999999
 21
667.06889000000001
 31
0.0
  0
LINE
  5
12A4
  8
001
 62
     2
 10
1171.2791999999999
 20
637.06889000000001
 30
0.0
 11
1171.2791999999999
 21
667.06889000000001
 31
0.0
  0
LINE
  5
12A5
  8
001
 62
     2
 10
1352.3161849999999
 20
800.26889000000006
 30
0.0
 11
1352.3161849999999
 21
577.06889000000001
 31
0.0
  0
LINE
  5
12A6
  8
001
 62
     2
 10
1172.496695
 20
800.26889000000006
 30
0.0
 11
1352.3161849999999
 21
800.26889000000006
 31
0.0
  0
LINE
  5
12A7
  8
001
 62
     2
 10
1164.8161849999999
 20
577.06889000000001
 30
0.0
 11
1352.3161849999999
 21
577.06889000000001
 31
0.0
  0
LINE
  5
12A8
  8
001
 62
     2
 10
1289.9829
 20
832.06889000000001
 30
0.0
 11
1289.9829
 21
800.26889000000006
 31
0.0
  0
LINE
  5
12A9
  8
001
 62
     2
 10
1293.1829
 20
832.06889000000001
 30
0.0
 11
1289.9829
 21
832.06889000000001
 31
0.0
  0
LINE
  5
12AA
  8
001
 62
     2
 10
1293.1829
 20
800.26889000000006
 30
0.0
 11
1293.1829
 21
832.06889000000001
 31
0.0
  0
LINE
  5
12AB
  8
001
 62
     4
 10
1205.3161849999999
 20
577.06889000000001
 30
0.0
 11
1205.3161849999999
 21
568.0688899999999
 31
0.0
  0
LINE
  5
12AC
  8
001
 62
     4
 10
1340.3161849999999
 20
568.0688899999999
 30
0.0
 11
1340.3161849999999
 21
577.06889000000001
 31
0.0
  0
ARC
  5
12AD
  8
001
 62
     2
 10
1152.1593350000001
 20
639.59336499999995
 30
0.0
 40
2.0
 50
135.0
 51
225.0
  0
LINE
  5
12AE
  8
001
 62
     2
 10
1150.74512
 20
641.00757499999975
 30
0.0
 11
1171.2791999999999
 21
661.54165499999988
 31
0.0
  0
LINE
  5
12AF
  8
001
 62
     2
 10
1156.826235
 20
632.09802999999999
 30
0.0
 11
1171.2791999999999
 21
646.55098999999996
 31
0.0
  0
LINE
  5
12B0
  8
001
 62
     2
 10
1156.826235
 20
632.09802999999999
 30
0.0
 11
1150.74512
 21
638.17915000000005
 31
0.0
  0
LINE
  5
12B1
  8
001
 62
     4
 10
1352.3161849999999
 20
858.06900500000006
 30
0.0
 11
1340.3161849999999
 21
858.06900500000006
 31
0.0
  0
LINE
  5
12B2
  8
001
 62
     4
 10
1352.3161849999999
 20
568.0688899999999
 30
0.0
 11
1352.3161849999999
 21
577.06889000000001
 31
0.0
  0
LINE
  5
12B3
  8
001
 62
     4
 10
1340.3161849999999
 20
863.06900499999995
 30
0.0
 11
1352.3161849999999
 21
863.06900499999995
 31
0.0
  0
LINE
  5
12B4
  8
001
 62
     4
 10
1340.3161849999999
 20
800.26889000000006
 30
0.0
 11
1340.3161849999999
 21
863.06900499999995
 31
0.0
  0
LINE
  5
12B5
  8
001
 62
     4
 10
1352.3161849999999
 20
863.06900499999995
 30
0.0
 11
1352.3161849999999
 21
800.26889000000006
 31
0.0
  0
LINE
  5
12B6
  8
001
 10
788.08258999999975
 20
666.29791
 30
0.0
 11
787.78172499999994
 21
666.29791
 31
0.0
  0
ARC
  5
12B7
  8
001
 62
   253
 10
708.37506499999995
 20
814.86888999999985
 30
0.0
 40
1.9999999999999989
 50
180.0
 51
270.0
  0
ARC
  5
12B8
  8
001
 62
   253
 10
725.37506499999995
 20
814.86888999999985
 30
0.0
 40
1.9999999999999989
 50
270.0
 51
0.0
  0
LINE
  5
12B9
  8
001
 62
   253
 10
725.37506499999995
 20
812.86888999999996
 30
0.0
 11
708.37506499999995
 21
812.86888999999996
 31
0.0
  0
ARC
  5
12BA
  8
001
 62
   253
 10
707.37506499999995
 20
818.86888999999985
 30
0.0
 40
1.000000000000002
 50
90.0
 51
180.0
  0
ARC
  5
12BB
  8
001
 62
   253
 10
726.37506499999995
 20
818.86888999999985
 30
0.0
 40
1.000000000000002
 50
0.0
 51
90.0
  0
LINE
  5
12BC
  8
001
 62
   253
 10
726.37506499999995
 20
819.86888999999996
 30
0.0
 11
707.37506499999995
 21
819.86888999999996
 31
0.0
  0
LINE
  5
12BD
  8
001
 62
   253
 10
706.37506499999995
 20
818.86888999999985
 30
0.0
 11
706.37506499999995
 21
814.86888999999985
 31
0.0
  0
LINE
  5
12BE
  8
001
 62
   253
 10
727.37506499999995
 20
814.86888999999985
 30
0.0
 11
727.37506499999995
 21
818.86888999999985
 31
0.0
  0
LINE
  5
12BF
  8
001
 62
   253
 10
710.62506499999995
 20
812.86888999999996
 30
0.0
 11
710.62506499999995
 21
801.86888999999985
 31
0.0
  0
LINE
  5
12C0
  8
001
 62
   253
 10
723.12506499999995
 20
801.86888999999985
 30
0.0
 11
723.12506499999995
 21
812.86888999999996
 31
0.0
  0
LINE
  5
12C1
  8
001
 62
   200
 10
678.68877499999996
 20
558.06889000000001
 30
0.0
 11
680.31490000000008
 21
544.82515000000001
 31
0.0
  0
LINE
  5
12C2
  8
001
 62
   200
 10
709.06264499999997
 20
544.82515000000001
 30
0.0
 11
710.68877499999985
 21
558.06889000000001
 31
0.0
  0
LINE
  5
12C3
  8
001
 62
   200
 10
688.37506499999995
 20
558.06889000000001
 30
0.0
 11
683.37506499999995
 21
558.06889000000001
 31
0.0
  0
ARC
  5
12C4
  8
001
 62
   200
 10
707.07755499999996
 20
545.06889000000001
 30
0.0
 40
2.0
 50
270.0
 51
353.0
  0
ARC
  5
12C5
  8
001
 62
   200
 10
682.29998999999998
 20
545.06889000000001
 30
0.0
 40
2.0
 50
187.0
 51
270.0
  0
LINE
  5
12C6
  8
001
 62
   200
 10
707.07755499999996
 20
543.0688899999999
 30
0.0
 11
682.29998999999998
 21
543.0688899999999
 31
0.0
  0
LINE
  5
12C7
  8
001
 62
   200
 10
862.06135499999993
 20
558.06889000000001
 30
0.0
 11
863.68747999999994
 21
544.82515000000001
 31
0.0
  0
LINE
  5
12C8
  8
001
 62
   200
 10
892.43522999999982
 20
544.82515000000001
 30
0.0
 11
892.83350999999993
 21
548.06889000000001
 31
0.0
  0
LINE
  5
12C9
  8
001
 62
   200
 10
892.95629499999995
 20
549.06889000000001
 30
0.0
 11
894.06135500000005
 21
558.06889000000001
 31
0.0
  0
LINE
  5
12CA
  8
001
 62
   200
 10
884.37506499999995
 20
558.06889000000001
 30
0.0
 11
889.37506499999995
 21
558.06889000000001
 31
0.0
  0
ARC
  5
12CB
  8
001
 62
   200
 10
890.45013500000005
 20
545.06889000000001
 30
0.0
 40
2.0
 50
270.0
 51
353.0
  0
ARC
  5
12CC
  8
001
 62
   200
 10
865.67257499999994
 20
545.06889000000001
 30
0.0
 40
2.0
 50
187.0
 51
270.0
  0
LINE
  5
12CD
  8
001
 62
   200
 10
865.67257499999994
 20
543.0688899999999
 30
0.0
 11
890.45013500000005
 21
543.0688899999999
 31
0.0
  0
LINE
  5
12D0
  8
001
 62
   134
 10
828.37506499999995
 20
834.0688899999999
 30
0.0
 11
826.37506499999995
 21
834.0688899999999
 31
0.0
  0
LINE
  5
12D1
  8
001
 62
   134
 10
746.37506499999995
 20
834.0688899999999
 30
0.0
 11
744.37506499999995
 21
834.0688899999999
 31
0.0
  0
LINE
  5
12D2
  8
001
 62
    60
 10
910.87506499999995
 20
818.56286499999987
 30
0.0
 11
911.37506499999995
 21
819.26996999999994
 31
0.0
  0
LINE
  5
12D3
  8
001
 62
    60
 10
910.37506499999995
 20
818.56286499999987
 30
0.0
 11
910.37506499999995
 21
863.32272499999999
 31
0.0
  0
LINE
  5
12D4
  8
001
 62
    60
 10
910.37506499999995
 20
863.32272499999999
 30
0.0
 11
910.87506499999995
 21
864.02982999999995
 31
0.0
  0
LINE
  5
12D5
  8
001
 62
    60
 10
911.37506499999995
 20
864.02982999999995
 30
0.0
 11
910.87506499999995
 21
864.02982999999995
 31
0.0
  0
LINE
  5
12D6
  8
001
 62
    60
 10
662.37506499999995
 20
863.32272499999999
 30
0.0
 11
662.37506499999995
 21
818.56286499999987
 31
0.0
  0
LINE
  5
12D7
  8
001
 62
    60
 10
661.37506499999995
 20
819.26996999999994
 30
0.0
 11
661.87506499999995
 21
818.56286499999987
 31
0.0
  0
LINE
  5
12D8
  8
001
 62
    60
 10
661.87506499999995
 20
864.02982999999995
 30
0.0
 11
661.37506499999995
 21
864.02982999999995
 31
0.0
  0
LINE
  5
12D9
  8
001
 62
    60
 10
661.87506499999995
 20
864.02982999999995
 30
0.0
 11
662.37506499999995
 21
863.32272499999999
 31
0.0
  0
LINE
  5
12DA
  8
001
 62
    60
 10
746.37506499999995
 20
834.46286499999997
 30
0.0
 11
744.37506499999995
 21
834.46286499999997
 31
0.0
  0
LINE
  5
12DB
  8
001
 62
    60
 10
744.37506499999995
 20
834.46286499999997
 30
0.0
 11
744.37506499999995
 21
818.56286499999987
 31
0.0
  0
LINE
  5
12DC
  8
001
 62
    60
 10
744.37506499999995
 20
818.56286499999987
 30
0.0
 11
727.37506499999995
 21
818.56286499999987
 31
0.0
  0
LINE
  5
12DD
  8
001
 62
    60
 10
706.37506499999995
 20
818.56286499999987
 30
0.0
 11
661.87506499999995
 21
818.56286499999987
 31
0.0
  0
LINE
  5
12DE
  8
001
 62
    60
 10
910.37506499999995
 20
863.32272499999999
 30
0.0
 11
662.37506499999995
 21
863.32272499999999
 31
0.0
  0
LINE
  5
12DF
  8
001
 62
    60
 10
910.87506499999995
 20
818.56286499999987
 30
0.0
 11
866.37506499999984
 21
818.56286499999987
 31
0.0
  0
LINE
  5
12E0
  8
001
 62
    60
 10
845.37506499999995
 20
818.56286499999987
 30
0.0
 11
828.37506499999995
 21
818.56286499999987
 31
0.0
  0
LINE
  5
12E1
  8
001
 62
    60
 10
828.37506499999995
 20
818.56286499999987
 30
0.0
 11
828.37506499999995
 21
834.46286499999997
 31
0.0
  0
LINE
  5
12E2
  8
001
 62
    60
 10
828.37506499999995
 20
834.46286499999997
 30
0.0
 11
826.37506499999995
 21
834.46286499999997
 31
0.0
  0
LINE
  5
12E3
  8
001
 62
    60
 10
662.37506499999995
 20
864.73694
 30
0.0
 11
661.87506499999995
 21
864.02982999999995
 31
0.0
  0
LINE
  5
12E4
  8
001
 62
    60
 10
662.37506499999995
 20
864.73694
 30
0.0
 11
910.37506499999995
 21
864.73694
 31
0.0
  0
LINE
  5
12E5
  8
001
 62
    60
 10
910.87506499999995
 20
864.02982999999995
 30
0.0
 11
910.37506499999995
 21
864.73694
 31
0.0
  0
LINE
  5
12E6
  8
001
 62
    60
 10
910.87506499999995
 20
870.39379000000008
 30
0.0
 11
911.37506499999995
 21
869.68668500000013
 31
0.0
  0
LINE
  5
12E7
  8
001
 62
    60
 10
911.37506499999995
 20
869.68668500000013
 30
0.0
 11
911.37506499999995
 21
819.26996999999994
 31
0.0
  0
LINE
  5
12E8
  8
001
 62
    60
 10
910.37506499999995
 20
864.73694
 30
0.0
 11
910.37506499999995
 21
870.39379000000008
 31
0.0
  0
LINE
  5
12E9
  8
001
 62
    60
 10
662.37506499999995
 20
870.39379000000008
 30
0.0
 11
662.37506499999995
 21
864.73694
 31
0.0
  0
LINE
  5
12EA
  8
001
 62
    60
 10
661.87506499999995
 20
870.39379000000008
 30
0.0
 11
910.87506499999995
 21
870.39379000000008
 31
0.0
  0
LINE
  5
12EB
  8
001
 62
    60
 10
661.37506499999995
 20
819.26996999999994
 30
0.0
 11
661.37506499999995
 21
869.68668500000013
 31
0.0
  0
LINE
  5
12EC
  8
001
 62
    60
 10
661.37506499999995
 20
869.68668500000013
 30
0.0
 11
661.87506499999995
 21
870.39379000000008
 31
0.0
  0
ARC
  5
12ED
  8
001
 62
   253
 10
846.37506499999995
 20
818.86888999999985
 30
0.0
 40
1.000000000000002
 50
90.0
 51
180.0
  0
ARC
  5
12EE
  8
001
 62
   253
 10
865.37506499999995
 20
818.86888999999985
 30
0.0
 40
1.000000000000002
 50
0.0
 51
90.0
  0
LINE
  5
12EF
  8
001
 62
   253
 10
865.37506499999995
 20
819.86888999999996
 30
0.0
 11
846.37506499999995
 21
819.86888999999996
 31
0.0
  0
LINE
  5
12F0
  8
001
 62
   253
 10
845.37506499999995
 20
818.86888999999985
 30
0.0
 11
845.37506499999995
 21
814.86888999999985
 31
0.0
  0
LINE
  5
12F1
  8
001
 62
   253
 10
866.37506499999984
 20
814.86888999999985
 30
0.0
 11
866.37506499999984
 21
818.86888999999985
 31
0.0
  0
ARC
  5
12F2
  8
001
 62
   253
 10
847.37506499999995
 20
814.86888999999985
 30
0.0
 40
1.9999999999999989
 50
180.0
 51
270.0
  0
ARC
  5
12F3
  8
001
 62
   253
 10
864.37506499999995
 20
814.86888999999985
 30
0.0
 40
1.9999999999999989
 50
270.0
 51
0.0
  0
LINE
  5
12F4
  8
001
 62
   253
 10
847.37506499999995
 20
812.86888999999996
 30
0.0
 11
864.37506499999995
 21
812.86888999999996
 31
0.0
  0
LINE
  5
12F5
  8
001
 62
   253
 10
849.62506499999995
 20
812.86888999999996
 30
0.0
 11
849.62506499999995
 21
801.86888999999985
 31
0.0
  0
LINE
  5
12F6
  8
001
 62
   253
 10
862.12506499999995
 20
801.86888999999985
 30
0.0
 11
862.12506499999995
 21
812.86888999999996
 31
0.0
  0
LINE
  5
12F7
  8
001
 62
    40
 10
826.37506499999995
 20
844.0688899999999
 30
0.0
 11
826.37506499999995
 21
800.26889000000006
 31
0.0
  0
LINE
  5
12F8
  8
001
 62
    40
 10
746.37506499999995
 20
844.0688899999999
 30
0.0
 11
746.37506499999995
 21
800.26889000000006
 31
0.0
  0
LINE
  5
12F9
  8
001
 62
    40
 10
826.37506499999995
 20
844.0688899999999
 30
0.0
 11
746.37506499999995
 21
844.0688899999999
 31
0.0
  0
LINE
  5
12FA
  8
001
 62
    40
 10
706.37506499999995
 20
800.26889000000006
 30
0.0
 11
706.37506499999995
 21
801.86888999999985
 31
0.0
  0
LINE
  5
12FB
  8
001
 62
    40
 10
746.37506499999995
 20
801.86888999999985
 30
0.0
 11
706.37506499999995
 21
801.86888999999985
 31
0.0
  0
LINE
  5
12FC
  8
001
 62
    40
 10
866.37506499999984
 20
801.86888999999985
 30
0.0
 11
866.37506499999984
 21
800.26889000000006
 31
0.0
  0
LINE
  5
12FD
  8
001
 62
    40
 10
826.37506499999995
 20
801.86888999999985
 30
0.0
 11
866.37506499999984
 21
801.86888999999985
 31
0.0
  0
LINE
  5
12FE
  8
001
 62
   253
 10
688.37506499999995
 20
568.0688899999999
 30
0.0
 11
688.37506499999995
 21
558.06889000000001
 31
0.0
  0
LINE
  5
12FF
  8
001
 62
   253
 10
683.37506499999995
 20
558.06889000000001
 30
0.0
 11
678.37506499999995
 21
558.06889000000001
 31
0.0
  0
LINE
  5
1300
  8
001
 62
   253
 10
678.37506499999995
 20
558.06889000000001
 30
0.0
 11
678.37506499999995
 21
568.0688899999999
 31
0.0
  0
LINE
  5
1301
  8
001
 62
   253
 10
894.37506499999995
 20
568.0688899999999
 30
0.0
 11
894.37506499999995
 21
558.06889000000001
 31
0.0
  0
LINE
  5
1302
  8
001
 62
   253
 10
894.37506499999995
 20
558.06889000000001
 30
0.0
 11
889.37506499999995
 21
558.06889000000001
 31
0.0
  0
LINE
  5
1303
  8
001
 62
   253
 10
884.37506499999995
 20
558.06889000000001
 30
0.0
 11
884.37506499999995
 21
568.0688899999999
 31
0.0
  0
LINE
  5
1304
  8
001
 62
   253
 10
884.37506499999995
 20
558.06889000000001
 30
0.0
 11
688.37506499999995
 21
558.06889000000001
 31
0.0
  0
LINE
  5
1305
  8
001
 62
   253
 10
894.37506499999995
 20
568.0688899999999
 30
0.0
 11
678.37506499999995
 21
568.0688899999999
 31
0.0
  0
LINE
  5
1306
  8
001
 62
     2
 10
894.37506499999995
 20
800.26889000000006
 30
0.0
 11
894.37506499999995
 21
577.06889000000001
 31
0.0
  0
LINE
  5
1307
  8
001
 62
     2
 10
894.37506499999995
 20
577.06889000000001
 30
0.0
 11
678.37506499999995
 21
577.06889000000001
 31
0.0
  0
LINE
  5
1308
  8
001
 62
     2
 10
678.37506499999995
 20
800.26889000000006
 30
0.0
 11
678.37506499999995
 21
577.06889000000001
 31
0.0
  0
LINE
  5
1309
  8
001
 62
     2
 10
749.57506499999977
 20
667.06889000000001
 30
0.0
 11
823.17506499999979
 21
667.06889000000001
 31
0.0
  0
LINE
  5
130A
  8
001
 62
     2
 10
678.37506499999995
 20
800.26889000000006
 30
0.0
 11
894.37506499999995
 21
800.26889000000006
 31
0.0
  0
LINE
  5
130B
  8
001
 62
     2
 10
725.97506499999986
 20
812.96100999999999
 30
0.0
 11
725.97506499999986
 21
801.86888999999985
 31
0.0
  0
LINE
  5
130C
  8
001
 62
     2
 10
744.37506499999995
 20
832.06889000000001
 30
0.0
 11
746.37506499999995
 21
832.06889000000001
 31
0.0
  0
LINE
  5
130D
  8
001
 62
     2
 10
826.37506499999995
 20
832.06889000000001
 30
0.0
 11
828.37506499999995
 21
832.06889000000001
 31
0.0
  0
LINE
  5
130E
  8
001
 62
     2
 10
846.77506499999993
 20
812.96100999999999
 30
0.0
 11
846.77506499999993
 21
801.86888999999985
 31
0.0
  0
LINE
  5
130F
  8
001
 62
     4
 10
728.87506499999995
 20
577.06889000000001
 30
0.0
 11
728.87506499999995
 21
568.0688899999999
 31
0.0
  0
LINE
  5
1310
  8
001
 62
     4
 10
843.87506499999995
 20
577.06889000000001
 30
0.0
 11
843.87506499999995
 21
568.0688899999999
 31
0.0
  0
LINE
  5
1311
  8
001
 62
     2
 10
821.575065
 20
633.22940000000006
 30
0.0
 11
751.17506499999979
 21
633.22940000000006
 31
0.0
  0
LINE
  5
1312
  8
001
 62
     2
 10
749.57506499999977
 20
632.09802999999999
 30
0.0
 11
823.17506499999979
 21
632.09802999999999
 31
0.0
  0
LINE
  5
1313
  8
001
 62
     2
 10
751.17506499999979
 20
633.22940000000006
 30
0.0
 11
751.17506499999979
 21
667.06889000000001
 31
0.0
  0
LINE
  5
1314
  8
001
 62
     2
 10
749.57506499999977
 20
667.06889000000001
 30
0.0
 11
749.57506499999977
 21
632.09802999999999
 31
0.0
  0
LINE
  5
1315
  8
001
 62
     2
 10
823.17506499999979
 20
632.09802999999999
 30
0.0
 11
823.17506499999979
 21
667.06889000000001
 31
0.0
  0
LINE
  5
1316
  8
001
 62
     2
 10
821.575065
 20
667.06889000000001
 30
0.0
 11
821.575065
 21
633.22940000000006
 31
0.0
  0
LINE
  5
1317
  8
001
 10
1641.9421950000001
 20
666.29791
 30
0.0
 11
1642.24306
 21
666.29791
 31
0.0
  0
LINE
  5
1318
  8
001
 62
   253
 10
1723.6497199999999
 20
814.86888999999985
 30
0.0
 11
1723.6497199999999
 21
818.56286499999987
 31
0.0
  0
ARC
  5
1319
  8
001
 62
   253
 10
1704.6497199999999
 20
814.86888999999985
 30
0.0
 40
1.9999999999999989
 50
252.54239699999999
 51
270.0
  0
ARC
  5
131A
  8
001
 62
   253
 10
1721.6497199999999
 20
814.86888999999985
 30
0.0
 40
1.9999999999999989
 50
270.0
 51
0.0
  0
LINE
  5
131B
  8
001
 62
   253
 10
1721.6497199999999
 20
812.86888999999996
 30
0.0
 11
1704.6497199999999
 21
812.86888999999996
 31
0.0
  0
LINE
  5
131C
  8
001
 62
   253
 10
1716.1497199999999
 20
801.86888999999985
 30
0.0
 11
1710.1497199999999
 21
801.86888999999985
 31
0.0
  0
LINE
  5
131D
  8
001
 62
   253
 10
1706.8997199999999
 20
812.86888999999996
 30
0.0
 11
1706.8997199999999
 21
801.86888999999985
 31
0.0
  0
LINE
  5
131E
  8
001
 62
   253
 10
1719.3997199999999
 20
801.86888999999985
 30
0.0
 11
1719.3997199999999
 21
812.86888999999996
 31
0.0
  0
LINE
  5
131F
  8
001
 62
   253
 10
1710.6497199999999
 20
801.86888999999985
 30
0.0
 11
1710.6497199999999
 21
800.26889000000006
 31
0.0
  0
LINE
  5
1320
  8
001
 62
   253
 10
1715.6497199999999
 20
800.26889000000006
 30
0.0
 11
1715.6497199999999
 21
801.86888999999985
 31
0.0
  0
LINE
  5
1321
  8
001
 62
   200
 10
1719.3360150000001
 20
558.06889000000001
 30
0.0
 11
1720.9621400000001
 21
544.82515000000001
 31
0.0
  0
LINE
  5
1322
  8
001
 62
   200
 10
1749.7098849999991
 20
544.82515000000001
 30
0.0
 11
1751.3360150000001
 21
558.06889000000001
 31
0.0
  0
ARC
  5
1323
  8
001
 62
   200
 10
1747.7247950000001
 20
545.06889000000001
 30
0.0
 40
2.0
 50
270.0
 51
353.0
  0
ARC
  5
1324
  8
001
 62
   200
 10
1722.94723
 20
545.06889000000001
 30
0.0
 40
2.0
 50
187.0
 51
270.0
  0
LINE
  5
1325
  8
001
 62
   200
 10
1747.7247950000001
 20
543.0688899999999
 30
0.0
 11
1722.94723
 21
543.0688899999999
 31
0.0
  0
CIRCLE
  5
1326
  8
001
 62
   253
 10
1643.6497199999999
 20
696.94789000000003
 30
0.0
 40
30.0
  0
CIRCLE
  5
1327
  8
001
 62
   253
 10
1643.6497199999999
 20
696.94789000000003
 30
0.0
 40
29.0
  0
ARC
  5
1328
  8
001
 62
   253
 10
1643.6497199999999
 20
696.94789000000003
 30
0.0
 40
6.0000000000000053
 50
124.228866
 51
210.66267300000001
  0
ARC
  5
1329
  8
001
 62
   253
 10
1643.6497199999999
 20
696.94789000000003
 30
0.0
 40
6.0000000000000053
 50
102.991921
 51
110.997604
  0
ARC
  5
132A
  8
001
 62
   253
 10
1643.6497199999999
 20
696.94789000000003
 30
0.0
 40
6.0000000000000053
 50
86.416678000000005
 51
93.583321999999995
  0
ARC
  5
132B
  8
001
 62
   253
 10
1643.6497199999999
 20
696.94789000000003
 30
0.0
 40
6.0000000000000053
 50
69.00239599999999
 51
77.008078999999995
  0
ARC
  5
132C
  8
001
 62
   253
 10
1643.6497199999999
 20
696.94789000000003
 30
0.0
 40
6.0000000000000053
 50
329.33732700000002
 51
55.771133999999989
  0
ARC
  5
132D
  8
001
 62
     5
 10
1634.6046349999999
 20
750.23097999999993
 30
0.0
 40
14.270509831248461
 50
44.77235499999999
 51
99.22764500000001
  0
ARC
  5
132E
  8
001
 62
     5
 10
1667.33006
 20
760.86411500000008
 30
0.0
 40
14.270509831248461
 50
116.772355
 51
171.227645
  0
ARC
  5
132F
  8
001
 62
     5
 10
1614.3792100000001
 20
778.06889000000001
 30
0.0
 40
14.270509831248461
 50
332.772355
 51
27.227644999999999
  0
ARC
  5
1330
  8
001
 62
     5
 10
1634.6046349999999
 20
805.90679999999986
 30
0.0
 40
14.270509831248461
 50
260.772355
 51
315.227645
  0
CIRCLE
  5
1331
  8
001
 62
     5
 10
1643.6497199999999
 20
778.06889000000001
 30
0.0
 40
13.0
  0
ARC
  5
1332
  8
001
 62
     5
 10
1667.33006
 20
795.27366500000005
 30
0.0
 40
14.270509831248461
 50
188.772355
 51
243.227645
  0
ARC
  5
1333
  8
001
 62
     5
 10
1648.284975
 20
792.33473499999991
 30
0.0
 40
4.9999999999999956
 50
8.772355000000001
 51
135.227645
  0
ARC
  5
1334
  8
001
 62
     5
 10
1631.514465
 20
786.88567
 30
0.0
 40
4.9999999999999929
 50
80.772355000000005
 51
207.227645
  0
ARC
  5
1335
  8
001
 62
     5
 10
1631.514465
 20
769.2521099999999
 30
0.0
 40
4.9999999999999982
 50
152.772355
 51
279.227645
  0
ARC
  5
1336
  8
001
 62
     5
 10
1658.6497199999999
 20
778.06889000000001
 30
0.0
 40
4.9999999999999956
 50
296.772355
 51
63.227645000000003
  0
ARC
  5
1337
  8
001
 62
     5
 10
1648.284975
 20
763.8030399999999
 30
0.0
 40
5.0
 50
224.772355
 51
351.227645
  0
CIRCLE
  5
1338
  8
001
 62
     5
 10
1643.6497199999999
 20
696.94789000000003
 30
0.0
 40
4.0
  0
CIRCLE
  5
1339
  8
001
 62
     5
 10
1643.6497199999999
 20
696.94789000000003
 30
0.0
 40
5.0
  0
CIRCLE
  5
133A
  8
001
 62
   253
 10
1643.6497199999999
 20
696.94789000000003
 30
0.0
 40
31.0
  0
CIRCLE
  5
133B
  8
001
 62
   253
 10
1643.6497199999999
 20
696.94789000000003
 30
0.0
 40
42.0
  0
LINE
  5
133C
  8
001
 62
   200
 10
1535.96343
 20
558.06889000000001
 30
0.0
 11
1537.589555
 21
544.82515000000001
 31
0.0
  0
LINE
  5
133D
  8
001
 62
   200
 10
1566.337305
 20
544.82515000000001
 30
0.0
 11
1567.96343
 21
558.06889000000001
 31
0.0
  0
ARC
  5
133E
  8
001
 62
   200
 10
1564.35221
 20
545.06889000000001
 30
0.0
 40
2.0
 50
270.0
 51
353.0
  0
ARC
  5
133F
  8
001
 62
   200
 10
1539.57465
 20
545.06889000000001
 30
0.0
 40
2.0
 50
187.0
 51
270.0
  0
LINE
  5
1340
  8
001
 62
   200
 10
1539.57465
 20
543.0688899999999
 30
0.0
 11
1564.35221
 21
543.0688899999999
 31
0.0
  0
ARC
  5
1341
  8
001
 62
    21
 10
1537.1634300000001
 20
548.26889000000006
 30
0.0
 40
0.199999999999999
 50
180.0
 51
270.0
  0
LINE
  5
1342
  8
001
 62
    21
 10
1537.1912749999999
 20
548.06889000000001
 30
0.0
 11
1537.1634300000001
 21
548.06889000000001
 31
0.0
  0
LINE
  5
1343
  8
001
 62
    21
 10
1537.0684900000001
 20
549.06889000000001
 30
0.0
 11
1536.96343
 21
549.06889000000001
 31
0.0
  0
LINE
  5
1344
  8
001
 62
    21
 10
1536.96343
 20
549.06889000000001
 30
0.0
 11
1536.96343
 21
548.26889000000006
 31
0.0
  0
LINE
  5
1345
  8
001
 62
   253
 10
1617.1497199999999
 20
863.06900499999995
 30
0.0
 11
1630.1497199999999
 21
863.06900499999995
 31
0.0
  0
LINE
  5
1346
  8
001
 62
   253
 10
1657.1497199999999
 20
863.06900499999995
 30
0.0
 11
1670.1497199999999
 21
863.06900499999995
 31
0.0
  0
LINE
  5
1347
  8
001
 62
   253
 10
1578.6497199999999
 20
863.06900499999995
 30
0.0
 11
1578.6497199999999
 21
834.0688899999999
 31
0.0
  0
LINE
  5
1348
  8
001
 62
   253
 10
1586.1497199999999
 20
834.0688899999999
 30
0.0
 11
1578.6497199999999
 21
834.0688899999999
 31
0.0
  0
LINE
  5
1349
  8
001
 62
   253
 10
1578.6497199999999
 20
863.06900499999995
 30
0.0
 11
1591.1497199999999
 21
863.06900499999995
 31
0.0
  0
LINE
  5
134A
  8
001
 62
   253
 10
1708.6497199999999
 20
863.06900499999995
 30
0.0
 11
1708.6497199999999
 21
834.0688899999999
 31
0.0
  0
LINE
  5
134B
  8
001
 62
   253
 10
1701.1497199999999
 20
834.0688899999999
 30
0.0
 11
1708.6497199999999
 21
834.0688899999999
 31
0.0
  0
LINE
  5
134C
  8
001
 62
   253
 10
1708.6497199999999
 20
863.06900499999995
 30
0.0
 11
1696.1497199999999
 21
863.06900499999995
 31
0.0
  0
LINE
  5
134D
  8
001
 62
    60
 10
1519.6497199999999
 20
863.32272499999999
 30
0.0
 11
1519.6497199999999
 21
818.56286499999987
 31
0.0
  0
LINE
  5
134E
  8
001
 62
    60
 10
1767.6497199999999
 20
863.32272499999999
 30
0.0
 11
1519.6497199999999
 21
863.32272499999999
 31
0.0
  0
LINE
  5
134F
  8
001
 62
    60
 10
1767.6497199999999
 20
818.56286499999987
 30
0.0
 11
1767.6497199999999
 21
863.32272499999999
 31
0.0
  0
LINE
  5
1350
  8
001
 62
    60
 10
1768.6497199999999
 20
819.26996999999994
 30
0.0
 11
1768.1497199999999
 21
818.56286499999987
 31
0.0
  0
LINE
  5
1351
  8
001
 62
    60
 10
1768.1497199999999
 20
818.56286499999987
 30
0.0
 11
1704.04972
 21
818.56286499999987
 31
0.0
  0
LINE
  5
1352
  8
001
 62
    60
 10
1767.6497199999999
 20
863.32272499999999
 30
0.0
 11
1768.1497199999999
 21
864.02982999999995
 31
0.0
  0
LINE
  5
1353
  8
001
 62
    60
 10
1768.6497199999999
 20
864.02982999999995
 30
0.0
 11
1768.1497199999999
 21
864.02982999999995
 31
0.0
  0
LINE
  5
1354
  8
001
 62
    60
 10
1583.24972
 20
818.56286499999987
 30
0.0
 11
1519.1497199999999
 21
818.56286499999987
 31
0.0
  0
LINE
  5
1355
  8
001
 62
    60
 10
1519.1497199999999
 20
818.56286499999987
 30
0.0
 11
1518.6497199999999
 21
819.26996999999994
 31
0.0
  0
LINE
  5
1356
  8
001
 62
    60
 10
1519.1497199999999
 20
864.02982999999995
 30
0.0
 11
1518.6497199999999
 21
864.02982999999995
 31
0.0
  0
LINE
  5
1357
  8
001
 62
    60
 10
1519.1497199999999
 20
864.02982999999995
 30
0.0
 11
1519.6497199999999
 21
863.32272499999999
 31
0.0
  0
LINE
  5
1358
  8
001
 62
    60
 10
1518.6497199999999
 20
819.26996999999994
 30
0.0
 11
1518.6497199999999
 21
869.68668500000013
 31
0.0
  0
LINE
  5
1359
  8
001
 62
    60
 10
1518.6497199999999
 20
869.68668500000013
 30
0.0
 11
1519.1497199999999
 21
870.39379000000008
 31
0.0
  0
LINE
  5
135A
  8
001
 62
    60
 10
1519.6497199999999
 20
870.39379000000008
 30
0.0
 11
1519.6497199999999
 21
864.73694
 31
0.0
  0
LINE
  5
135B
  8
001
 62
    60
 10
1519.6497199999999
 20
864.73694
 30
0.0
 11
1519.1497199999999
 21
864.02982999999995
 31
0.0
  0
LINE
  5
135C
  8
001
 62
    60
 10
1768.1497199999999
 20
864.02982999999995
 30
0.0
 11
1767.6497199999999
 21
864.73694
 31
0.0
  0
LINE
  5
135D
  8
001
 62
    60
 10
1519.6497199999999
 20
864.73694
 30
0.0
 11
1767.6497199999999
 21
864.73694
 31
0.0
  0
LINE
  5
135E
  8
001
 62
    60
 10
1767.6497199999999
 20
864.73694
 30
0.0
 11
1767.6497199999999
 21
870.39379000000008
 31
0.0
  0
LINE
  5
135F
  8
001
 62
    60
 10
1768.1497199999999
 20
870.39379000000008
 30
0.0
 11
1768.6497199999999
 21
869.68668500000013
 31
0.0
  0
LINE
  5
1360
  8
001
 62
    60
 10
1768.6497199999999
 20
869.68668500000013
 30
0.0
 11
1768.6497199999999
 21
819.26996999999994
 31
0.0
  0
LINE
  5
1361
  8
001
 62
    60
 10
1768.1497199999999
 20
870.39379000000008
 30
0.0
 11
1519.1497199999999
 21
870.39379000000008
 31
0.0
  0
ARC
  5
1362
  8
001
 62
   253
 10
1565.6497199999999
 20
814.86888999999985
 30
0.0
 40
1.9999999999999989
 50
180.0
 51
270.0
  0
ARC
  5
1363
  8
001
 62
   253
 10
1582.6497199999999
 20
814.86888999999985
 30
0.0
 40
1.9999999999999989
 50
270.0
 51
287.45760300000001
  0
LINE
  5
1364
  8
001
 62
   253
 10
1565.6497199999999
 20
812.86888999999996
 30
0.0
 11
1582.6497199999999
 21
812.86888999999996
 31
0.0
  0
LINE
  5
1365
  8
001
 62
   253
 10
1563.6497199999999
 20
818.56286499999987
 30
0.0
 11
1563.6497199999999
 21
814.86888999999985
 31
0.0
  0
LINE
  5
1366
  8
001
 62
   253
 10
1571.1497199999999
 20
801.86888999999985
 30
0.0
 11
1577.1497199999999
 21
801.86888999999985
 31
0.0
  0
LINE
  5
1367
  8
001
 62
   253
 10
1567.8997199999999
 20
812.86888999999996
 30
0.0
 11
1567.8997199999999
 21
801.86888999999985
 31
0.0
  0
LINE
  5
1368
  8
001
 62
   253
 10
1580.3997199999999
 20
801.86888999999985
 30
0.0
 11
1580.3997199999999
 21
812.86888999999996
 31
0.0
  0
LINE
  5
1369
  8
001
 62
   253
 10
1571.6497199999999
 20
801.86888999999985
 30
0.0
 11
1571.6497199999999
 21
800.26889000000006
 31
0.0
  0
LINE
  5
136A
  8
001
 62
   253
 10
1576.6497199999999
 20
800.26889000000006
 30
0.0
 11
1576.6497199999999
 21
801.86888999999985
 31
0.0
  0
LINE
  5
136B
  8
001
 62
    40
 10
1583.24972
 20
801.86888999999985
 30
0.0
 11
1577.1497199999999
 21
801.86888999999985
 31
0.0
  0
LINE
  5
136C
  8
001
 62
    40
 10
1577.1497199999999
 20
800.26889000000006
 30
0.0
 11
1577.1497199999999
 21
801.86888999999985
 31
0.0
  0
LINE
  5
136D
  8
001
 62
    40
 10
1704.04972
 20
801.86888999999985
 30
0.0
 11
1710.1497199999999
 21
801.86888999999985
 31
0.0
  0
LINE
  5
136E
  8
001
 62
    40
 10
1710.1497199999999
 20
801.86888999999985
 30
0.0
 11
1710.1497199999999
 21
800.26889000000006
 31
0.0
  0
LINE
  5
136F
  8
001
 62
    40
 10
1571.1497199999999
 20
801.86888999999985
 30
0.0
 11
1571.1497199999999
 21
800.26889000000006
 31
0.0
  0
LINE
  5
1370
  8
001
 62
    40
 10
1716.1497199999999
 20
800.26889000000006
 30
0.0
 11
1716.1497199999999
 21
801.86888999999985
 31
0.0
  0
LINE
  5
1371
  8
001
 62
    40
 10
1563.6497199999999
 20
800.26889000000006
 30
0.0
 11
1563.6497199999999
 21
801.86888999999985
 31
0.0
  0
LINE
  5
1372
  8
001
 62
    40
 10
1563.6497199999999
 20
801.86888999999985
 30
0.0
 11
1571.1497199999999
 21
801.86888999999985
 31
0.0
  0
LINE
  5
1373
  8
001
 62
    40
 10
1723.6497199999999
 20
801.86888999999985
 30
0.0
 11
1723.6497199999999
 21
800.26889000000006
 31
0.0
  0
LINE
  5
1374
  8
001
 62
    40
 10
1716.1497199999999
 20
801.86888999999985
 30
0.0
 11
1723.6497199999999
 21
801.86888999999985
 31
0.0
  0
LINE
  5
1375
  8
001
 62
   253
 10
1543.6497199999999
 20
568.0688899999999
 30
0.0
 11
1543.6497199999999
 21
558.06889000000001
 31
0.0
  0
LINE
  5
1376
  8
001
 62
   253
 10
1743.6497199999999
 20
558.06889000000001
 30
0.0
 11
1743.6497199999999
 21
568.0688899999999
 31
0.0
  0
LINE
  5
1377
  8
001
 62
   253
 10
1535.6497199999999
 20
558.06889000000001
 30
0.0
 11
1535.6497199999999
 21
568.0688899999999
 31
0.0
  0
LINE
  5
1378
  8
001
 62
   253
 10
1751.6497199999999
 20
558.06889000000001
 30
0.0
 11
1535.6497199999999
 21
558.06889000000001
 31
0.0
  0
LINE
  5
1379
  8
001
 62
   253
 10
1751.6497199999999
 20
568.0688899999999
 30
0.0
 11
1751.6497199999999
 21
558.06889000000001
 31
0.0
  0
LINE
  5
137A
  8
001
 62
   253
 10
1535.6497199999999
 20
568.0688899999999
 30
0.0
 11
1751.6497199999999
 21
568.0688899999999
 31
0.0
  0
CIRCLE
  5
137C
  8
001
 62
     2
 10
1726.8497199999999
 20
607.06889000000001
 30
0.0
 40
13.0
  0
ARC
  5
137E
  8
001
 62
     2
 10
1709.04972
 20
582.06889000000001
 30
0.0
 40
5.0
 50
180.0
 51
270.0
  0
ARC
  5
1380
  8
001
 62
     2
 10
1578.24972
 20
582.06889000000001
 30
0.0
 40
5.0
 50
270.0
 51
0.0
  0
LINE
  5
1381
  8
001
 62
     2
 10
1704.04972
 20
800.26889000000006
 30
0.0
 11
1751.6497199999999
 21
800.26889000000006
 31
0.0
  0
LINE
  5
1382
  8
001
 62
     2
 10
1751.6497199999999
 20
800.26889000000006
 30
0.0
 11
1751.6497199999999
 21
577.06889000000001
 31
0.0
  0
LINE
  5
1383
  8
001
 62
     2
 10
1535.6497199999999
 20
800.26889000000006
 30
0.0
 11
1535.6497199999999
 21
577.06889000000001
 31
0.0
  0
LINE
  5
1384
  8
001
 62
     2
 10
1535.6497199999999
 20
800.26889000000006
 30
0.0
 11
1583.24972
 21
800.26889000000006
 31
0.0
  0
LINE
  5
1385
  8
001
 62
     2
 10
1583.24972
 20
582.06889000000001
 30
0.0
 11
1583.24972
 21
832.06889000000001
 31
0.0
  0
LINE
  5
1386
  8
001
 62
     2
 10
1704.04972
 20
832.06889000000001
 30
0.0
 11
1701.1497199999999
 21
832.06889000000001
 31
0.0
  0
LINE
  5
1387
  8
001
 62
     2
 10
1586.1497199999999
 20
832.06889000000001
 30
0.0
 11
1583.24972
 21
832.06889000000001
 31
0.0
  0
LINE
  5
1388
  8
001
 62
     2
 10
1704.04972
 20
582.06889000000001
 30
0.0
 11
1704.04972
 21
832.06889000000001
 31
0.0
  0
LINE
  5
1389
  8
001
 62
     2
 10
1535.6497199999999
 20
577.06889000000001
 30
0.0
 11
1586.1497199999999
 21
577.06889000000001
 31
0.0
  0
LINE
  5
138A
  8
001
 62
     2
 10
1701.1497199999999
 20
577.06889000000001
 30
0.0
 11
1751.6497199999999
 21
577.06889000000001
 31
0.0
  0
LINE
  5
138B
  8
001
 62
   134
 10
1704.04972
 20
777.06889000000001
 30
0.0
 11
1701.1497199999999
 21
777.06889000000001
 31
0.0
  0
LINE
  5
138C
  8
001
 62
   134
 10
1701.1497199999999
 20
797.0688899999999
 30
0.0
 11
1704.04972
 21
797.0688899999999
 31
0.0
  0
LINE
  5
138D
  8
001
 62
   134
 10
1586.1497199999999
 20
777.06889000000001
 30
0.0
 11
1583.24972
 21
777.06889000000001
 31
0.0
  0
LINE
  5
138E
  8
001
 62
   134
 10
1583.24972
 20
797.0688899999999
 30
0.0
 11
1586.1497199999999
 21
797.0688899999999
 31
0.0
  0
CIRCLE
  5
138F
  8
001
 62
     4
 10
1681.1497199999999
 20
608.06889000000001
 30
0.0
 40
2.100000000000001
  0
LINE
  5
1390
  8
001
 62
     4
 10
1701.1497199999999
 20
858.06900500000006
 30
0.0
 11
1696.1497199999999
 21
863.06900499999995
 31
0.0
  0
LINE
  5
1391
  8
001
 62
     4
 10
1701.1497199999999
 20
568.0688899999999
 30
0.0
 11
1701.1497199999999
 21
858.06900500000006
 31
0.0
  0
CIRCLE
  5
1392
  8
001
 62
     4
 10
1606.1497199999999
 20
575.5688899999999
 30
0.0
 40
6.0
  0
CIRCLE
  5
1393
  8
001
 62
     4
 10
1681.1497199999999
 20
575.5688899999999
 30
0.0
 40
6.0
  0
LINE
  5
1394
  8
001
 62
     4
 10
1616.6497199999999
 20
863.06900499999995
 30
0.0
 11
1616.6497199999999
 21
848.06900500000006
 31
0.0
  0
LINE
  5
1395
  8
001
 62
     4
 10
1670.6497199999999
 20
848.06900500000006
 30
0.0
 11
1670.6497199999999
 21
863.06900499999995
 31
0.0
  0
LINE
  5
1396
  8
001
 62
     4
 10
1591.1497199999999
 20
863.06900499999995
 30
0.0
 11
1586.1497199999999
 21
858.06900500000006
 31
0.0
  0
CIRCLE
  5
1397
  8
001
 62
     4
 10
1623.6497199999999
 20
821.06889000000001
 30
0.0
 40
7.0
  0
LINE
  5
1398
  8
001
 62
     4
 10
1586.1497199999999
 20
568.0688899999999
 30
0.0
 11
1586.1497199999999
 21
858.06900500000006
 31
0.0
  0
LINE
  5
1399
  8
001
 62
     4
 10
1630.6497199999999
 20
848.06900500000006
 30
0.0
 11
1630.6497199999999
 21
863.06900499999995
 31
0.0
  0
LINE
  5
139A
  8
001
 62
     4
 10
1656.6497199999999
 20
863.06900499999995
 30
0.0
 11
1656.6497199999999
 21
848.06900500000006
 31
0.0
  0
CIRCLE
  5
139B
  8
001
 62
     4
 10
1663.6497199999999
 20
821.06889000000001
 30
0.0
 40
7.0
  0
LINE
  5
139C
  8
001
 62
     4
 10
1659.1497199999999
 20
861.06900499999995
 30
0.0
 11
1657.1497199999999
 21
863.06900499999995
 31
0.0
  0
LINE
  5
139D
  8
001
 62
     4
 10
1630.1497199999999
 20
863.06900499999995
 30
0.0
 11
1628.1497199999999
 21
861.06900499999995
 31
0.0
  0
LINE
  5
139E
  8
001
 62
     4
 10
1630.1497199999999
 20
863.06900499999995
 30
0.0
 11
1657.1497199999999
 21
863.06900499999995
 31
0.0
  0
LINE
  5
139F
  8
001
 62
     4
 10
1670.1497199999999
 20
863.06900499999995
 30
0.0
 11
1668.1497199999999
 21
861.06900499999995
 31
0.0
  0
LINE
  5
13A0
  8
001
 62
     4
 10
1670.1497199999999
 20
863.06900499999995
 30
0.0
 11
1696.1497199999999
 21
863.06900499999995
 31
0.0
  0
ARC
  5
13A1
  8
001
 62
     4
 10
1663.6497199999999
 20
848.06900500000006
 30
0.0
 40
6.9999999999983213
 50
130.005201
 51
49.994799
  0
LINE
  5
13A2
  8
001
 62
     4
 10
1619.1497199999999
 20
861.06900499999995
 30
0.0
 11
1617.1497199999999
 21
863.06900499999995
 31
0.0
  0
LINE
  5
13A3
  8
001
 62
     4
 10
1591.1497199999999
 20
863.06900499999995
 30
0.0
 11
1617.1497199999999
 21
863.06900499999995
 31
0.0
  0
ARC
  5
13A4
  8
001
 62
     4
 10
1623.6497199999999
 20
848.06900500000006
 30
0.0
 40
6.9999999999983213
 50
130.005201
 51
49.994799
  0
LINE
  5
13A5
  8
001
 62
     4
 10
1659.1497199999999
 20
861.06900499999995
 30
0.0
 11
1659.1497199999999
 21
852.75942000000009
 31
0.0
  0
LINE
  5
13A6
  8
001
 62
     4
 10
1668.1497199999999
 20
852.75942000000009
 30
0.0
 11
1668.1497199999999
 21
861.06900499999995
 31
0.0
  0
LINE
  5
13A7
  8
001
 62
     4
 10
1619.1497199999999
 20
861.06900499999995
 30
0.0
 11
1619.1497199999999
 21
852.75942000000009
 31
0.0
  0
LINE
  5
13A8
  8
001
 62
     4
 10
1628.1497199999999
 20
852.75942000000009
 30
0.0
 11
1628.1497199999999
 21
861.06900499999995
 31
0.0
  0
LINE
  5
13A9
  8
001
 62
   253
 10
258.59434499999998
 20
769.06889000000001
 30
0.0
 11
260.09434499999998
 21
769.06889000000001
 31
0.0
  0
LINE
  5
13AA
  8
001
 62
   253
 10
260.09434499999998
 20
787.06889000000001
 30
0.0
 11
258.59434499999998
 21
787.06889000000001
 31
0.0
  0
LINE
  5
13AB
  8
001
 62
   253
 10
258.59434499999998
 20
787.06889000000001
 30
0.0
 11
258.59434499999998
 21
769.06889000000001
 31
0.0
  0
LINE
  5
13AC
  8
001
 62
   253
 10
364.59434499999998
 20
833.88088000000005
 30
0.0
 11
366.84222999999997
 21
834.11889500000007
 31
0.0
  0
LINE
  5
13AD
  8
001
 62
   253
 10
366.84222999999997
 20
834.11889500000007
 30
0.0
 11
367.28683999999998
 21
832.06889000000001
 31
0.0
  0
LINE
  5
13AE
  8
001
 62
   253
 10
364.59434499999998
 20
833.99973499999987
 30
0.0
 11
365.82801999999998
 21
834.11889500000007
 31
0.0
  0
LINE
  5
13AF
  8
001
 62
    21
 10
328.09434499999998
 20
834.0688899999999
 30
0.0
 11
328.09434499999998
 21
832.06889000000001
 31
0.0
  0
LINE
  5
13B0
  8
001
 62
    21
 10
345.12763000000012
 20
834.0688899999999
 30
0.0
 11
345.12763000000012
 21
832.06889000000001
 31
0.0
  0
LINE
  5
13B1
  8
001
 62
   134
 10
349.55786999999998
 20
833.51889000000006
 30
0.0
 11
349.55786999999998
 21
832.07416499999999
 31
0.0
  0
POLYLINE
  5
13B2
  8
001
 62
   134
 66
     1
 10
0.0
 20
0.0
 30
0.0
  0
VERTEX
  5
13B4
  8
001
 62
   134
 10
351.76799
 20
832.62630499999989
 30
0.0
  0
VERTEX
  5
13B5
  8
001
 62
   134
 10
351.41329999999999
 20
832.45189000000005
 30
0.0
  0
VERTEX
  5
13B6
  8
001
 62
   134
 10
351.0847500000001
 20
832.24051500000007
 30
0.0
  0
VERTEX
  5
13B7
  8
001
 62
   134
 10
350.98913499999998
 20
832.16014999999993
 30
0.0
  0
VERTEX
  5
13B8
  8
001
 62
   134
 10
350.89618499999989
 20
832.07602999999995
 30
0.0
  0
SEQEND
  5
13B3
  8
001
  0
LINE
  5
13B9
  8
001
 62
   134
 10
352.18202500000001
 20
832.77326499999992
 30
0.0
 11
351.76799
 21
832.62630499999989
 31
0.0
  0
LINE
  5
13BA
  8
001
 62
   134
 10
345.12763000000012
 20
833.51889000000006
 30
0.0
 11
351.43121000000008
 21
833.51889000000006
 31
0.0
  0
LINE
  5
13BB
  8
001
 62
   134
 10
366.97235999999998
 20
833.51889000000006
 30
0.0
 11
369.57842499999992
 21
833.51889000000006
 31
0.0
  0
LINE
  5
13BC
  8
001
 62
   253
 10
377.09434499999998
 20
818.86888999999985
 30
0.0
 11
377.09434499999998
 21
814.86888999999985
 31
0.0
  0
LINE
  5
13BD
  8
001
 62
   253
 10
398.09434499999998
 20
814.86888999999985
 30
0.0
 11
398.09434499999998
 21
818.86888999999985
 31
0.0
  0
ARC
  5
13BE
  8
001
 62
   253
 10
379.09434499999998
 20
814.86888999999985
 30
0.0
 40
1.9999999999999989
 50
180.0
 51
270.0
  0
ARC
  5
13BF
  8
001
 62
   253
 10
396.09434499999998
 20
814.86888999999985
 30
0.0
 40
1.9999999999999989
 50
270.0
 51
0.0
  0
LINE
  5
13C0
  8
001
 62
   253
 10
396.09434499999998
 20
812.86888999999996
 30
0.0
 11
379.09434499999998
 21
812.86888999999996
 31
0.0
  0
ARC
  5
13C1
  8
001
 62
   253
 10
378.09434499999998
 20
818.86888999999985
 30
0.0
 40
1.000000000000002
 50
90.0
 51
180.0
  0
ARC
  5
13C2
  8
001
 62
   253
 10
397.09434499999998
 20
818.86888999999985
 30
0.0
 40
1.000000000000002
 50
0.0
 51
90.0
  0
LINE
  5
13C3
  8
001
 62
   253
 10
397.09434499999998
 20
819.86888999999996
 30
0.0
 11
378.09434499999998
 21
819.86888999999996
 31
0.0
  0
LINE
  5
13C4
  8
001
 62
   253
 10
381.34434499999998
 20
812.86888999999996
 30
0.0
 11
381.34434499999998
 21
801.86888999999985
 31
0.0
  0
LINE
  5
13C5
  8
001
 62
   253
 10
393.84434499999998
 20
801.86888999999985
 30
0.0
 11
393.84434499999998
 21
812.86888999999996
 31
0.0
  0
LINE
  5
13C6
  8
001
 62
   200
 10
402.28063500000002
 20
558.06889000000001
 30
0.0
 11
403.90676000000002
 21
544.82515000000001
 31
0.0
  0
LINE
  5
13C7
  8
001
 62
   200
 10
432.65451000000002
 20
544.82515000000001
 30
0.0
 11
434.28063500000002
 21
558.06889000000001
 31
0.0
  0
LINE
  5
13C8
  8
001
 62
   200
 10
429.59434499999998
 20
558.06889000000001
 30
0.0
 11
424.59434499999992
 21
558.06889000000001
 31
0.0
  0
ARC
  5
13C9
  8
001
 62
   200
 10
430.6694149999999
 20
545.06889000000001
 30
0.0
 40
2.0
 50
270.0
 51
353.0
  0
ARC
  5
13CA
  8
001
 62
   200
 10
405.89185499999991
 20
545.06889000000001
 30
0.0
 40
2.0
 50
187.0
 51
270.0
  0
LINE
  5
13CB
  8
001
 62
   200
 10
430.6694149999999
 20
543.0688899999999
 30
0.0
 11
405.89185499999991
 21
543.0688899999999
 31
0.0
  0
LINE
  5
13CC
  8
001
 62
   200
 10
234.90805
 20
558.06889000000001
 30
0.0
 11
236.53417999999999
 21
544.82515000000001
 31
0.0
  0
LINE
  5
13CD
  8
001
 62
   200
 10
265.281925
 20
544.82515000000001
 30
0.0
 11
266.90805
 21
558.06889000000001
 31
0.0
  0
ARC
  5
13CE
  8
001
 62
   200
 10
263.29683499999999
 20
545.06889000000001
 30
0.0
 40
2.0
 50
270.0
 51
353.0
  0
ARC
  5
13CF
  8
001
 62
   200
 10
238.51927000000001
 20
545.06889000000001
 30
0.0
 40
2.0
 50
187.0
 51
270.0
  0
LINE
  5
13D0
  8
001
 62
   200
 10
263.29683499999999
 20
543.0688899999999
 30
0.0
 11
238.51927000000001
 21
543.0688899999999
 31
0.0
  0
LINE
  5
13D1
  8
001
 62
   253
 10
259.09434499999998
 20
666.94789000000003
 30
0.0
 11
259.09434499999998
 21
726.94789000000003
 31
0.0
  0
LINE
  5
13D2
  8
001
 62
   253
 10
259.09434499999998
 20
666.94789000000003
 30
0.0
 11
259.59434499999998
 21
667.44789000000003
 31
0.0
  0
LINE
  5
13D3
  8
001
 62
   253
 10
259.59434499999998
 20
726.44788999999992
 30
0.0
 11
259.09434499999998
 21
726.94789000000003
 31
0.0
  0
LINE
  5
13D4
  8
001
 62
   253
 10
241.094345
 20
726.94789000000003
 30
0.0
 11
241.094345
 21
666.94789000000003
 31
0.0
  0
LINE
  5
13D5
  8
001
 62
   253
 10
241.094345
 20
726.94789000000003
 30
0.0
 11
240.094345
 21
725.94788999999992
 31
0.0
  0
LINE
  5
13D6
  8
001
 62
   253
 10
240.094345
 20
667.94789000000003
 30
0.0
 11
241.094345
 21
666.94789000000003
 31
0.0
  0
LINE
  5
13D7
  8
001
 62
   253
 10
240.094345
 20
667.94789000000003
 30
0.0
 11
240.094345
 21
725.94788999999992
 31
0.0
  0
LINE
  5
13D8
  8
001
 62
   253
 10
241.094345
 20
666.94789000000003
 30
0.0
 11
259.09434499999998
 21
666.94789000000003
 31
0.0
  0
LINE
  5
13D9
  8
001
 62
   253
 10
259.09434499999998
 20
726.94789000000003
 30
0.0
 11
241.094345
 21
726.94789000000003
 31
0.0
  0
LINE
  5
13DA
  8
001
 62
     5
 10
231.594345
 20
765.06889000000001
 30
0.0
 11
231.594345
 21
791.06889000000001
 31
0.0
  0
POLYLINE
  5
13DB
  8
001
 62
     5
 66
     1
 10
0.0
 20
0.0
 30
0.0
  0
VERTEX
  5
13DD
  8
001
 62
     5
 10
231.89136999999999
 20
762.40141500000004
 30
0.0
  0
VERTEX
  5
13DE
  8
001
 62
     5
 10
231.89795000000001
 20
762.35143500000015
 30
0.0
  0
VERTEX
  5
13DF
  8
001
 62
     5
 10
231.90457499999999
 20
762.30145999999991
 30
0.0
  0
VERTEX
  5
13E0
  8
001
 62
     5
 10
232.01138499999999
 20
761.56686499999989
 30
0.0
  0
VERTEX
  5
13E1
  8
001
 62
     5
 10
232.12857
 20
760.83374499999991
 30
0.0
  0
SEQEND
  5
13DC
  8
001
  0
ARC
  5
13E2
  8
001
 62
     5
 10
302.09434499999998
 20
784.5688899999999
 30
0.0
 40
70.79901129253345
 50
172.544309
 51
174.732303
  0
ARC
  5
13E3
  8
001
 62
     5
 10
302.09434499999998
 20
771.5688899999999
 30
0.0
 40
70.79901129253345
 50
185.267697
 51
187.44672800000001
  0
LINE
  5
13E4
  8
001
 62
     5
 10
232.12857
 20
760.83374499999991
 30
0.0
 11
232.165865
 21
760.61941000000013
 31
0.0
  0
POLYLINE
  5
13E5
  8
001
 62
     5
 66
     1
 10
0.0
 20
0.0
 30
0.0
  0
VERTEX
  5
13E7
  8
001
 62
     5
 10
232.165865
 20
760.61941000000013
 30
0.0
  0
VERTEX
  5
13E8
  8
001
 62
     5
 10
232.19401500000001
 20
760.47722999999985
 30
0.0
  0
VERTEX
  5
13E9
  8
001
 62
     5
 10
232.21789000000001
 20
760.33886499999994
 30
0.0
  0
VERTEX
  5
13EA
  8
001
 62
     5
 10
232.256
 20
760.07016499999986
 30
0.0
  0
VERTEX
  5
13EB
  8
001
 62
     5
 10
232.34578500000001
 20
759.77362000000005
 30
0.0
  0
VERTEX
  5
13EC
  8
001
 62
     5
 10
232.38647499999999
 20
759.69002499999999
 30
0.0
  0
VERTEX
  5
13ED
  8
001
 62
     5
 10
232.42251999999999
 20
759.64097500000003
 30
0.0
  0
VERTEX
  5
13EE
  8
001
 62
     5
 10
232.44895500000001
 20
759.73176499999988
 30
0.0
  0
VERTEX
  5
13EF
  8
001
 62
     5
 10
232.43755999999999
 20
759.95583999999985
 30
0.0
  0
VERTEX
  5
13F0
  8
001
 62
     5
 10
232.40940000000001
 20
760.37900000000002
 30
0.0
  0
VERTEX
  5
13F1
  8
001
 62
     5
 10
232.387775
 20
760.69135999999992
 30
0.0
  0
VERTEX
  5
13F2
  8
001
 62
     5
 10
232.34025500000001
 20
761.20518500000003
 30
0.0
  0
VERTEX
  5
13F3
  8
001
 62
     5
 10
232.27936500000001
 20
761.76938999999993
 30
0.0
  0
VERTEX
  5
13F4
  8
001
 62
     5
 10
232.20388500000001
 20
762.42592000000013
 30
0.0
  0
VERTEX
  5
13F5
  8
001
 62
     5
 10
232.12857
 20
763.06052999999997
 30
0.0
  0
SEQEND
  5
13E6
  8
001
  0
POLYLINE
  5
13F6
  8
001
 62
     5
 66
     1
 10
0.0
 20
0.0
 30
0.0
  0
VERTEX
  5
13F8
  8
001
 62
     5
 10
232.12857
 20
795.304035
 30
0.0
  0
VERTEX
  5
13F9
  8
001
 62
     5
 10
232.12082000000001
 20
795.25825999999995
 30
0.0
  0
VERTEX
  5
13FA
  8
001
 62
     5
 10
232.1131049999999
 20
795.21247499999993
 30
0.0
  0
VERTEX
  5
13FB
  8
001
 62
     5
 10
231.997885
 20
794.47787499999993
 30
0.0
  0
VERTEX
  5
13FC
  8
001
 62
     5
 10
231.89207500000001
 20
793.74177000000009
 30
0.0
  0
SEQEND
  5
13F7
  8
001
  0
POLYLINE
  5
13FD
  8
001
 62
     5
 66
     1
 10
0.0
 20
0.0
 30
0.0
  0
VERTEX
  5
13FF
  8
001
 62
     5
 10
233.38719
 20
797.33467000000007
 30
0.0
  0
VERTEX
  5
1400
  8
001
 62
     5
 10
233.24540500000001
 20
797.31970499999977
 30
0.0
  0
VERTEX
  5
1401
  8
001
 62
     5
 10
233.10652999999999
 20
797.29232999999988
 30
0.0
  0
VERTEX
  5
1402
  8
001
 62
     5
 10
232.97094999999999
 20
797.24184999999989
 30
0.0
  0
VERTEX
  5
1403
  8
001
 62
     5
 10
232.84413000000001
 20
797.17061999999999
 30
0.0
  0
VERTEX
  5
1404
  8
001
 62
     5
 10
232.74726000000001
 20
797.09880499999997
 30
0.0
  0
VERTEX
  5
1405
  8
001
 62
     5
 10
232.65949499999999
 20
797.01657999999998
 30
0.0
  0
VERTEX
  5
1406
  8
001
 62
     5
 10
232.59705
 20
796.94433499999991
 30
0.0
  0
VERTEX
  5
1407
  8
001
 62
     5
 10
232.54137499999999
 20
796.86671999999987
 30
0.0
  0
VERTEX
  5
1408
  8
001
 62
     5
 10
232.504345
 20
796.80576499999995
 30
0.0
  0
VERTEX
  5
1409
  8
001
 62
     5
 10
232.47116
 20
796.7426650000001
 30
0.0
  0
VERTEX
  5
140A
  8
001
 62
     5
 10
232.44331
 20
796.68163499999991
 30
0.0
  0
VERTEX
  5
140B
  8
001
 62
     5
 10
232.41841500000001
 20
796.61933999999985
 30
0.0
  0
VERTEX
  5
140C
  8
001
 62
     5
 10
232.38863000000001
 20
796.53326500000003
 30
0.0
  0
VERTEX
  5
140D
  8
001
 62
     5
 10
232.36234999999999
 20
796.44603500000005
 30
0.0
  0
VERTEX
  5
140E
  8
001
 62
     5
 10
232.31006500000001
 20
796.24305500000014
 30
0.0
  0
VERTEX
  5
140F
  8
001
 62
     5
 10
232.26512
 20
796.03827000000001
 30
0.0
  0
VERTEX
  5
1410
  8
001
 62
     5
 10
232.217175
 20
795.79872499999999
 30
0.0
  0
VERTEX
  5
1411
  8
001
 62
     5
 10
232.17267000000001
 20
795.55855499999996
 30
0.0
  0
VERTEX
  5
1412
  8
001
 62
     5
 10
232.15158
 20
795.43869499999994
 30
0.0
  0
VERTEX
  5
1413
  8
001
 62
     5
 10
232.13085000000001
 20
795.31876999999986
 30
0.0
  0
SEQEND
  5
13FE
  8
001
  0
LINE
  5
1414
  8
001
 62
     5
 10
242.594345
 20
797.33473499999991
 30
0.0
 11
233.393765
 21
797.33473499999991
 31
0.0
  0
POLYLINE
  5
1415
  8
001
 62
     5
 66
     1
 10
0.0
 20
0.0
 30
0.0
  0
VERTEX
  5
1417
  8
001
 62
     5
 10
232.13084000000001
 20
760.81890499999997
 30
0.0
  0
VERTEX
  5
1418
  8
001
 62
     5
 10
232.17295999999999
 20
760.57918999999993
 30
0.0
  0
VERTEX
  5
1419
  8
001
 62
     5
 10
232.216995
 20
760.33988499999987
 30
0.0
  0
VERTEX
  5
141A
  8
001
 62
     5
 10
232.26105999999999
 20
760.11896000000002
 30
0.0
  0
VERTEX
  5
141B
  8
001
 62
     5
 10
232.30946499999999
 20
759.898775
 30
0.0
  0
VERTEX
  5
141C
  8
001
 62
     5
 10
232.35575499999999
 20
759.71354499999995
 30
0.0
  0
VERTEX
  5
141D
  8
001
 62
     5
 10
232.41343499999999
 20
759.53180999999995
 30
0.0
  0
VERTEX
  5
141E
  8
001
 62
     5
 10
232.44700499999999
 20
759.44772499999976
 30
0.0
  0
VERTEX
  5
141F
  8
001
 62
     5
 10
232.485895
 20
759.36593999999991
 30
0.0
  0
VERTEX
  5
1420
  8
001
 62
     5
 10
232.54308
 20
759.26847999999995
 30
0.0
  0
VERTEX
  5
1421
  8
001
 62
     5
 10
232.60998499999999
 20
759.17745999999988
 30
0.0
  0
VERTEX
  5
1422
  8
001
 62
     5
 10
232.70236
 20
759.07889499999999
 30
0.0
  0
VERTEX
  5
1423
  8
001
 62
     5
 10
232.80692500000001
 20
758.99272499999995
 30
0.0
  0
VERTEX
  5
1424
  8
001
 62
     5
 10
232.94977499999999
 20
758.90602000000013
 30
0.0
  0
VERTEX
  5
1425
  8
001
 62
     5
 10
233.10468499999999
 20
758.84615000000008
 30
0.0
  0
VERTEX
  5
1426
  8
001
 62
     5
 10
233.24179000000001
 20
758.81875500000001
 30
0.0
  0
VERTEX
  5
1427
  8
001
 62
     5
 10
233.38171500000001
 20
758.80331000000001
 30
0.0
  0
SEQEND
  5
1416
  8
001
  0
LINE
  5
1428
  8
001
 62
     5
 10
233.390975
 20
758.80304000000001
 30
0.0
 11
242.594345
 21
758.80304000000001
 31
0.0
  0
ARC
  5
1429
  8
001
 62
     5
 10
242.594345
 20
759.80304000000012
 30
0.0
 40
1.0
 50
270.0
 51
0.0
  0
ARC
  5
142A
  8
001
 62
     5
 10
242.594345
 20
796.33473500000002
 30
0.0
 40
1.0
 50
0.0
 51
90.0
  0
LINE
  5
142B
  8
001
 62
     5
 10
243.594345
 20
796.33473500000002
 30
0.0
 11
243.594345
 21
759.80304000000012
 31
0.0
  0
LINE
  5
142C
  8
001
 62
     5
 10
258.59434499999998
 20
785.56889000000001
 30
0.0
 11
243.594345
 21
785.56889000000001
 31
0.0
  0
LINE
  5
142D
  8
001
 62
     5
 10
243.594345
 20
770.56889000000001
 30
0.0
 11
258.59434499999998
 21
770.56889000000001
 31
0.0
  0
LINE
  5
142E
  8
001
 62
     5
 10
237.094345
 20
692.94789000000003
 30
0.0
 11
237.094345
 21
700.94788999999992
 31
0.0
  0
LINE
  5
142F
  8
001
 62
     5
 10
238.094345
 20
691.94789000000003
 30
0.0
 11
238.094345
 21
701.94789000000003
 31
0.0
  0
LINE
  5
1430
  8
001
 62
     5
 10
238.094345
 20
701.94789000000003
 30
0.0
 11
237.094345
 21
700.94788999999992
 31
0.0
  0
LINE
  5
1431
  8
001
 62
     5
 10
237.094345
 20
692.94789000000003
 30
0.0
 11
238.094345
 21
691.94789000000003
 31
0.0
  0
LINE
  5
1432
  8
001
 62
     5
 10
238.944345
 20
691.94789000000003
 30
0.0
 11
238.944345
 21
701.94789000000003
 31
0.0
  0
LINE
  5
1433
  8
001
 62
     5
 10
238.094345
 20
691.94789000000003
 30
0.0
 11
238.944345
 21
691.94789000000003
 31
0.0
  0
LINE
  5
1434
  8
001
 62
     5
 10
238.944345
 20
701.94789000000003
 30
0.0
 11
238.094345
 21
701.94789000000003
 31
0.0
  0
LINE
  5
1435
  8
001
 62
     5
 10
238.944345
 20
692.14788999999985
 30
0.0
 11
239.094345
 21
692.14788999999985
 31
0.0
  0
LINE
  5
1436
  8
001
 62
     5
 10
239.094345
 20
701.74788999999998
 30
0.0
 11
238.944345
 21
701.74788999999998
 31
0.0
  0
LINE
  5
1437
  8
001
 62
   253
 10
259.59434499999998
 20
654.94789000000003
 30
0.0
 11
260.09434499999998
 21
654.94789000000003
 31
0.0
  0
LINE
  5
1438
  8
001
 62
   253
 10
260.09434499999998
 20
738.94788999999992
 30
0.0
 11
259.59434499999998
 21
738.94788999999992
 31
0.0
  0
LINE
  5
1439
  8
001
 62
   253
 10
259.59434499999998
 20
738.94788999999992
 30
0.0
 11
259.59434499999998
 21
654.94789000000003
 31
0.0
  0
LINE
  5
143A
  8
001
 62
   253
 10
314.10291999999993
 20
863.06900499999995
 30
0.0
 11
343.10303499999998
 21
834.0688899999999
 31
0.0
  0
LINE
  5
143B
  8
001
 62
   253
 10
272.09434499999998
 20
863.06900499999995
 30
0.0
 11
321.88109500000002
 21
863.06900499999995
 31
0.0
  0
LINE
  5
143C
  8
001
 62
   253
 10
350.88121000000001
 20
834.0688899999999
 30
0.0
 11
272.09434499999998
 21
834.0688899999999
 31
0.0
  0
LINE
  5
143D
  8
001
 62
   134
 10
319.09434499999998
 20
806.06889000000001
 30
0.0
 11
319.09434499999998
 21
834.0688899999999
 31
0.0
  0
LINE
  5
143E
  8
001
 62
   134
 10
319.09434499999998
 20
806.06889000000001
 30
0.0
 11
272.09434499999998
 21
806.06889000000001
 31
0.0
  0
LINE
  5
143F
  8
001
 62
    60
 10
322.33448499999997
 20
864.02982999999995
 30
0.0
 11
367.09434499999998
 21
819.26996999999994
 31
0.0
  0
LINE
  5
1440
  8
001
 62
    60
 10
327.99133999999998
 20
869.68668500000013
 30
0.0
 11
322.33448499999997
 21
864.02982999999995
 31
0.0
  0
LINE
  5
1441
  8
001
 62
    60
 10
364.59434499999998
 20
833.08367999999996
 30
0.0
 11
327.99133999999998
 21
869.68668500000013
 31
0.0
  0
LINE
  5
1442
  8
001
 62
    60
 10
364.59434499999998
 20
831.06286499999987
 30
0.0
 11
369.59434499999998
 21
831.06286499999987
 31
0.0
  0
LINE
  5
1443
  8
001
 62
    60
 10
406.19734999999991
 20
869.68668500000013
 30
0.0
 11
369.59434499999998
 21
833.08367999999996
 31
0.0
  0
LINE
  5
1444
  8
001
 62
    60
 10
411.85419999999988
 20
864.02982999999995
 30
0.0
 11
406.19734999999991
 21
869.68668500000013
 31
0.0
  0
LINE
  5
1445
  8
001
 62
    60
 10
367.09434499999998
 20
819.26996999999994
 30
0.0
 11
411.85419999999988
 21
864.02982999999995
 31
0.0
  0
LINE
  5
1446
  8
001
 62
    60
 10
321.62737499999997
 20
864.73694
 30
0.0
 11
327.28422999999998
 21
870.39379000000008
 31
0.0
  0
LINE
  5
1447
  8
001
 62
    60
 10
327.99133999999998
 20
870.39379000000008
 30
0.0
 11
327.99133999999998
 21
869.68668500000013
 31
0.0
  0
LINE
  5
1448
  8
001
 62
    60
 10
322.33448499999997
 20
864.02982999999995
 30
0.0
 11
321.62737499999997
 21
864.02982999999995
 31
0.0
  0
LINE
  5
1449
  8
001
 62
    60
 10
406.90445499999998
 20
870.39379000000008
 30
0.0
 11
412.56130999999988
 21
864.73694
 31
0.0
  0
LINE
  5
144A
  8
001
 62
    60
 10
412.56130999999988
 20
864.02982999999995
 30
0.0
 11
411.85419999999988
 21
864.02982999999995
 31
0.0
  0
LINE
  5
144B
  8
001
 62
    60
 10
406.19734999999991
 20
869.68668500000013
 30
0.0
 11
406.19734999999991
 21
870.39379000000008
 31
0.0
  0
LINE
  5
144C
  8
001
 62
    60
 10
367.09434499999998
 20
819.26996999999994
 30
0.0
 11
367.09434499999998
 21
818.56286499999987
 31
0.0
  0
LINE
  5
144D
  8
001
 62
    60
 10
366.38723499999998
 20
818.56286499999987
 30
0.0
 11
321.62737499999997
 21
863.32272499999999
 31
0.0
  0
LINE
  5
144E
  8
001
 62
    60
 10
321.62737499999997
 20
863.32272499999999
 30
0.0
 11
321.62737499999997
 21
864.73694
 31
0.0
  0
LINE
  5
144F
  8
001
 62
    60
 10
328.69844500000011
 20
870.39379000000008
 30
0.0
 11
364.59434499999998
 21
834.49789499999986
 31
0.0
  0
LINE
  5
1450
  8
001
 62
    60
 10
364.59434499999998
 20
834.49789499999986
 30
0.0
 11
364.59434499999998
 21
831.06286499999987
 31
0.0
  0
LINE
  5
1451
  8
001
 62
    60
 10
327.28422999999998
 20
870.39379000000008
 30
0.0
 11
328.69844500000011
 21
870.39379000000008
 31
0.0
  0
LINE
  5
1452
  8
001
 62
    60
 10
412.56130999999988
 20
863.32272499999999
 30
0.0
 11
367.8014500000001
 21
818.56286499999987
 31
0.0
  0
LINE
  5
1453
  8
001
 62
    60
 10
367.8014500000001
 20
818.56286499999987
 30
0.0
 11
366.38723499999998
 21
818.56286499999987
 31
0.0
  0
LINE
  5
1454
  8
001
 62
    60
 10
412.56130999999988
 20
864.73694
 30
0.0
 11
412.56130999999988
 21
863.32272499999999
 31
0.0
  0
LINE
  5
1455
  8
001
 62
    60
 10
369.59434499999998
 20
834.49789499999986
 30
0.0
 11
405.49023999999991
 21
870.39379000000008
 31
0.0
  0
LINE
  5
1456
  8
001
 62
    60
 10
405.49023999999991
 20
870.39379000000008
 30
0.0
 11
406.90445499999998
 21
870.39379000000008
 31
0.0
  0
LINE
  5
1457
  8
001
 62
    60
 10
369.59434499999998
 20
831.06286499999987
 30
0.0
 11
369.59434499999998
 21
834.49789499999986
 31
0.0
  0
LINE
  5
1458
  8
001
 62
    40
 10
403.09434499999992
 20
801.86888999999985
 30
0.0
 11
403.09434499999992
 21
800.26889000000006
 31
0.0
  0
LINE
  5
1459
  8
001
 62
    40
 10
377.09434499999998
 20
800.26889000000006
 30
0.0
 11
377.09434499999998
 21
801.86888999999985
 31
0.0
  0
LINE
  5
145A
  8
001
 62
    40
 10
377.09434499999998
 20
801.86888999999985
 30
0.0
 11
403.09434499999992
 21
801.86888999999985
 31
0.0
  0
LINE
  5
145B
  8
001
 62
    40
 10
439.91383500000001
 20
844.0688899999999
 30
0.0
 11
439.91383500000001
 21
800.26889000000006
 31
0.0
  0
LINE
  5
145C
  8
001
 62
    40
 10
322.42763000000002
 20
832.06889000000001
 30
0.0
 11
352.88121000000001
 21
832.06889000000001
 31
0.0
  0
LINE
  5
145D
  8
001
 62
    40
 10
364.59434499999998
 20
832.06889000000001
 30
0.0
 11
369.59434499999998
 21
832.06889000000001
 31
0.0
  0
LINE
  5
145E
  8
001
 62
    40
 10
381.30747500000001
 20
832.06889000000001
 30
0.0
 11
382.72169000000002
 21
832.06889000000001
 31
0.0
  0
LINE
  5
145F
  8
001
 62
    40
 10
382.72169000000002
 20
832.06889000000001
 30
0.0
 11
394.72169000000002
 21
844.0688899999999
 31
0.0
  0
LINE
  5
1460
  8
001
 62
    40
 10
447.59434499999992
 20
844.0688899999999
 30
0.0
 11
394.72169000000002
 21
844.0688899999999
 31
0.0
  0
LINE
  5
1461
  8
001
 62
    40
 10
447.59434499999992
 20
800.26889000000006
 30
0.0
 11
447.59434499999992
 21
844.0688899999999
 31
0.0
  0
LINE
  5
1462
  8
001
 62
    40
 10
439.91383500000001
 20
800.26889000000006
 30
0.0
 11
447.59434499999992
 21
800.26889000000006
 31
0.0
  0
LINE
  5
1463
  8
001
 62
   253
 10
434.59434499999998
 20
568.0688899999999
 30
0.0
 11
434.59434499999998
 21
558.06889000000001
 31
0.0
  0
LINE
  5
1464
  8
001
 62
   253
 10
434.59434499999998
 20
558.06889000000001
 30
0.0
 11
429.59434499999998
 21
558.06889000000001
 31
0.0
  0
LINE
  5
1465
  8
001
 62
   253
 10
424.59434499999992
 20
558.06889000000001
 30
0.0
 11
424.59434499999992
 21
568.0688899999999
 31
0.0
  0
LINE
  5
1466
  8
001
 62
   253
 10
234.594345
 20
558.06889000000001
 30
0.0
 11
234.594345
 21
568.0688899999999
 31
0.0
  0
LINE
  5
1467
  8
001
 62
   253
 10
242.594345
 20
568.0688899999999
 30
0.0
 11
242.594345
 21
558.06889000000001
 31
0.0
  0
LINE
  5
1468
  8
001
 62
   253
 10
434.59434499999998
 20
568.0688899999999
 30
0.0
 11
234.594345
 21
568.0688899999999
 31
0.0
  0
LINE
  5
1469
  8
001
 62
   253
 10
424.59434499999992
 20
558.06889000000001
 30
0.0
 11
234.594345
 21
558.06889000000001
 31
0.0
  0
LINE
  5
146A
  8
001
 62
     2
 10
260.09434499999998
 20
800.26889000000006
 30
0.0
 11
260.09434499999998
 21
577.06889000000001
 31
0.0
  0
LINE
  5
146B
  8
001
 62
     2
 10
447.59434499999992
 20
667.06889000000001
 30
0.0
 11
447.59434499999992
 21
800.26889000000006
 31
0.0
  0
LINE
  5
146C
  8
001
 62
     2
 10
447.59434499999992
 20
577.06889000000001
 30
0.0
 11
447.59434499999992
 21
637.06889000000001
 31
0.0
  0
LINE
  5
146D
  8
001
 62
     2
 10
441.13132999999999
 20
637.06889000000001
 30
0.0
 11
447.59434499999992
 21
637.06889000000001
 31
0.0
  0
LINE
  5
146E
  8
001
 62
     2
 10
441.13132999999999
 20
667.06889000000001
 30
0.0
 11
447.59434499999992
 21
667.06889000000001
 31
0.0
  0
LINE
  5
146F
  8
001
 62
     2
 10
441.13132999999999
 20
667.06889000000001
 30
0.0
 11
441.13132999999999
 21
637.06889000000001
 31
0.0
  0
LINE
  5
1470
  8
001
 62
     2
 10
260.09434499999998
 20
577.06889000000001
 30
0.0
 11
447.59434499999992
 21
577.06889000000001
 31
0.0
  0
LINE
  5
1471
  8
001
 62
     2
 10
260.09434499999998
 20
800.26889000000006
 30
0.0
 11
439.91383500000001
 21
800.26889000000006
 31
0.0
  0
LINE
  5
1472
  8
001
 62
     2
 10
319.22762999999998
 20
800.26889000000006
 30
0.0
 11
319.22762999999998
 21
832.06889000000001
 31
0.0
  0
LINE
  5
1473
  8
001
 62
     2
 10
319.22762999999998
 20
832.06889000000001
 30
0.0
 11
322.42763000000002
 21
832.06889000000001
 31
0.0
  0
LINE
  5
1474
  8
001
 62
     2
 10
322.42763000000002
 20
832.06889000000001
 30
0.0
 11
322.42763000000002
 21
800.26889000000006
 31
0.0
  0
LINE
  5
1475
  8
001
 62
     4
 10
407.09434499999992
 20
577.06889000000001
 30
0.0
 11
407.09434499999992
 21
568.0688899999999
 31
0.0
  0
LINE
  5
1476
  8
001
 62
     4
 10
272.09434499999998
 20
568.0688899999999
 30
0.0
 11
272.09434499999998
 21
577.06889000000001
 31
0.0
  0
LINE
  5
1477
  8
001
 62
     2
 10
441.13132999999999
 20
661.54165499999988
 30
0.0
 11
461.66540999999989
 21
641.00757499999975
 31
0.0
  0
ARC
  5
1478
  8
001
 62
     2
 10
460.251195
 20
639.59336499999995
 30
0.0
 40
2.0
 50
315.0
 51
45.0
  0
LINE
  5
1479
  8
001
 62
     2
 10
441.13132999999999
 20
646.55098999999996
 30
0.0
 11
455.58429499999988
 21
632.09802999999999
 31
0.0
  0
LINE
  5
147A
  8
001
 62
     2
 10
461.66540999999989
 20
638.17915000000005
 30
0.0
 11
455.58429499999988
 21
632.09802999999999
 31
0.0
  0
LINE
  5
147B
  8
001
 62
     4
 10
260.09434499999998
 20
568.0688899999999
 30
0.0
 11
260.09434499999998
 21
577.06889000000001
 31
0.0
  0
LINE
  5
147C
  8
001
 62
     4
 10
272.09434499999998
 20
858.06900500000006
 30
0.0
 11
260.09434499999998
 21
858.06900500000006
 31
0.0
  0
LINE
  5
147D
  8
001
 62
     4
 10
260.09434499999998
 20
863.06900499999995
 30
0.0
 11
272.09434499999998
 21
863.06900499999995
 31
0.0
  0
LINE
  5
147E
  8
001
 62
     4
 10
260.09434499999998
 20
800.26889000000006
 30
0.0
 11
260.09434499999998
 21
863.06900499999995
 31
0.0
  0
LINE
  5
147F
  8
001
 62
     4
 10
272.09434499999998
 20
863.06900499999995
 30
0.0
 11
272.09434499999998
 21
800.26889000000006
 31
0.0
  0
LINE
  5
1524
  8
001
 62
   253
 10
1617.5045849999999
 20
713.60418000000004
 30
0.0
 11
1612.865935
 21
716.55932499999994
 31
0.0
  0
LINE
  5
1525
  8
001
 62
   253
 10
1636.9400949999999
 20
727.21306499999992
 30
0.0
 11
1635.749675
 21
732.58269499999983
 31
0.0
  0
LINE
  5
1526
  8
001
 62
   253
 10
1660.30601
 20
723.09302500000013
 30
0.0
 11
1663.2611549999999
 21
727.73167499999988
 31
0.0
  0
LINE
  5
1527
  8
001
 62
   253
 10
1604.70436
 20
703.81501000000003
 30
0.0
 11
1602.287795
 21
704.24111500000004
 31
0.0
  0
LINE
  5
1528
  8
001
 62
   253
 10
1625.8688500000001
 20
722.34160499999984
 30
0.0
 11
1624.6348399999999
 21
724.10394999999994
 31
0.0
  0
LINE
  5
1529
  8
001
 62
   253
 10
1620.55582
 20
729.929395
 30
0.0
 11
1619.55951
 21
731.35227499999996
 31
0.0
  0
LINE
  5
152A
  8
001
 62
   253
 10
1650.6023949999999
 20
736.37846999999999
 30
0.0
 11
1650.942945
 21
738.30981499999984
 31
0.0
  0
LINE
  5
152B
  8
001
 62
   253
 10
1676.306
 20
719.81406000000015
 30
0.0
 11
1678.0541049999999
 21
721.03809999999987
 31
0.0
  0
LINE
  5
152C
  8
001
 62
   253
 10
1613.12068
 20
702.33098500000006
 30
0.0
 11
1611.001935
 21
702.70457499999998
 31
0.0
  0
LINE
  5
152D
  8
001
 62
   253
 10
1649.032815
 20
727.47693000000004
 30
0.0
 11
1649.4064049999999
 21
729.59567500000014
 31
0.0
  0
LINE
  5
152E
  8
001
 62
   253
 10
1669.043435
 20
714.72876000000008
 30
0.0
 11
1670.805785
 21
715.96277000000009
 31
0.0
  0
LINE
  5
152F
  8
001
 10
1620.1884950000001
 20
702.42971999999986
 30
0.0
 11
1615.090295
 21
701.98368500000004
 31
0.0
  0
LINE
  5
1530
  8
001
 10
1619.72848
 20
699.82086500000003
 30
0.0
 11
1615.090295
 21
701.98368500000004
 31
0.0
  0
LINE
  5
1531
  8
001
 10
1619.72848
 20
699.82086500000003
 30
0.0
 11
1620.1884950000001
 21
702.42971999999986
 31
0.0
  0
LINE
  5
1532
  8
001
 10
1619.4378449999999
 20
699.95639000000006
 30
0.0
 11
1619.81971
 21
700.338255
 31
0.0
  0
LINE
  5
1533
  8
001
 10
1618.95561
 20
700.18125999999995
 30
0.0
 11
1619.9710849999999
 21
701.19673499999988
 31
0.0
  0
LINE
  5
1534
  8
001
 10
1618.473375
 20
700.40612999999996
 30
0.0
 11
1620.12246
 21
702.05521499999998
 31
0.0
  0
LINE
  5
1535
  8
001
 10
1617.9911400000001
 20
700.63099999999997
 30
0.0
 11
1619.7516350000001
 21
702.39149999999995
 31
0.0
  0
LINE
  5
1536
  8
001
 10
1617.5089
 20
700.85587499999986
 30
0.0
 11
1618.976735
 21
702.32370499999979
 31
0.0
  0
LINE
  5
1537
  8
001
 10
1617.0266650000001
 20
701.08074500000009
 30
0.0
 11
1618.2018350000001
 21
702.25590999999986
 31
0.0
  0
LINE
  5
1538
  8
001
 10
1616.5444299999999
 20
701.30561499999988
 30
0.0
 11
1617.4269300000001
 21
702.18811499999993
 31
0.0
  0
LINE
  5
1539
  8
001
 10
1616.062195
 20
701.53048499999989
 30
0.0
 11
1616.65203
 21
702.12031999999999
 31
0.0
  0
LINE
  5
153A
  8
001
 10
1615.5799549999999
 20
701.75535500000001
 30
0.0
 11
1615.8771300000001
 21
702.05252499999995
 31
0.0
  0
LINE
  5
153B
  8
001
 10
1615.09772
 20
701.98022500000002
 30
0.0
 11
1615.1022250000001
 21
701.98473000000001
 31
0.0
  0
ENDSEC
  0
EOF
